  0
SECTION
  2
HEADER
  9
$ACADVER
  1
AC1018
  9
$ACADMAINTVER
 70
    76
  9
$DWGCODEPAGE
  3
ANSI_1252
  9
$LASTSAVEDBY
  1
Autodesk
  9
$INSBASE
 10
0.0
 20
0.0
 30
0.0
  9
$EXTMIN
 10
13.28899008744912
 20
58.95601652677715
 30
0.0
  9
$EXTMAX
 10
336.8758704882352
 20
481.7660891894138
 30
0.0
  9
$LIMMIN
 10
0.0
 20
0.0
  9
$LIMMAX
 10
420.0
 20
297.0
  9
$ORTHOMODE
 70
     0
  9
$REGENMODE
 70
     1
  9
$FILLMODE
 70
     1
  9
$QTEXTMODE
 70
     0
  9
$MIRRTEXT
 70
     0
  9
$LTSCALE
 40
1.0
  9
$ATTMODE
 70
     1
  9
$TEXTSIZE
 40
2.5
  9
$TRACEWID
 40
1.0
  9
$TEXTSTYLE
  7
Standard
  9
$CLAYER
  8
0
  9
$CELTYPE
  6
ByLayer
  9
$CECOLOR
 62
     1
  9
$CELTSCALE
 40
1.0
  9
$DISPSILH
 70
     0
  9
$DIMSCALE
 40
1.0
  9
$DIMASZ
 40
2.5
  9
$DIMEXO
 40
0.625
  9
$DIMDLI
 40
3.75
  9
$DIMRND
 40
0.0
  9
$DIMDLE
 40
0.0
  9
$DIMEXE
 40
1.25
  9
$DIMTP
 40
0.0
  9
$DIMTM
 40
0.0
  9
$DIMTXT
 40
2.5
  9
$DIMCEN
 40
2.5
  9
$DIMTSZ
 40
0.0
  9
$DIMTOL
 70
     0
  9
$DIMLIM
 70
     0
  9
$DIMTIH
 70
     0
  9
$DIMTOH
 70
     0
  9
$DIMSE1
 70
     0
  9
$DIMSE2
 70
     0
  9
$DIMTAD
 70
     1
  9
$DIMZIN
 70
     8
  9
$DIMBLK
  1

  9
$DIMASO
 70
     1
  9
$DIMSHO
 70
     1
  9
$DIMPOST
  1

  9
$DIMAPOST
  1

  9
$DIMALT
 70
     0
  9
$DIMALTD
 70
     3
  9
$DIMALTF
 40
0.03937007874016
  9
$DIMLFAC
 40
1.0
  9
$DIMTOFL
 70
     1
  9
$DIMTVP
 40
0.0
  9
$DIMTIX
 70
     0
  9
$DIMSOXD
 70
     0
  9
$DIMSAH
 70
     0
  9
$DIMBLK1
  1

  9
$DIMBLK2
  1

  9
$DIMSTYLE
  2
ISO-25
  9
$DIMCLRD
 70
     0
  9
$DIMCLRE
 70
     0
  9
$DIMCLRT
 70
     0
  9
$DIMTFAC
 40
1.0
  9
$DIMGAP
 40
0.625
  9
$DIMJUST
 70
     0
  9
$DIMSD1
 70
     0
  9
$DIMSD2
 70
     0
  9
$DIMTOLJ
 70
     0
  9
$DIMTZIN
 70
     8
  9
$DIMALTZ
 70
     0
  9
$DIMALTTZ
 70
     0
  9
$DIMUPT
 70
     0
  9
$DIMDEC
 70
     2
  9
$DIMTDEC
 70
     2
  9
$DIMALTU
 70
     2
  9
$DIMALTTD
 70
     3
  9
$DIMTXSTY
  7
Standard
  9
$DIMAUNIT
 70
     0
  9
$DIMADEC
 70
     0
  9
$DIMALTRND
 40
0.0
  9
$DIMAZIN
 70
     0
  9
$DIMDSEP
 70
    44
  9
$DIMATFIT
 70
     3
  9
$DIMFRAC
 70
     0
  9
$DIMLDRBLK
  1

  9
$DIMLUNIT
 70
     2
  9
$DIMLWD
 70
    -2
  9
$DIMLWE
 70
    -2
  9
$DIMTMOVE
 70
     0
  9
$LUNITS
 70
     2
  9
$LUPREC
 70
     4
  9
$SKETCHINC
 40
1.0
  9
$FILLETRAD
 40
1.0
  9
$AUNITS
 70
     0
  9
$AUPREC
 70
     0
  9
$MENU
  1
.
  9
$ELEVATION
 40
0.0
  9
$PELEVATION
 40
0.0
  9
$THICKNESS
 40
0.0
  9
$LIMCHECK
 70
     0
  9
$CHAMFERA
 40
0.0
  9
$CHAMFERB
 40
0.0
  9
$CHAMFERC
 40
0.0
  9
$CHAMFERD
 40
0.0
  9
$SKPOLY
 70
     0
  9
$TDCREATE
 40
2454813.926206771
  9
$TDUCREATE
 40
2454813.884540104
  9
$TDUPDATE
 40
2454813.953213750
  9
$TDUUPDATE
 40
2454813.911547084
  9
$TDINDWG
 40
0.0270107755
  9
$TDUSRTIMER
 40
0.0270075231
  9
$USRTIMER
 70
     1
  9
$ANGBASE
 50
0.0
  9
$ANGDIR
 70
     0
  9
$PDMODE
 70
     0
  9
$PDSIZE
 40
0.0
  9
$PLINEWID
 40
0.0
  9
$SPLFRAME
 70
     0
  9
$SPLINETYPE
 70
     6
  9
$SPLINESEGS
 70
     8
  9
$HANDSEED
  5
131
  9
$SURFTAB1
 70
     6
  9
$SURFTAB2
 70
     6
  9
$SURFTYPE
 70
     6
  9
$SURFU
 70
     6
  9
$SURFV
 70
     6
  9
$UCSBASE
  2

  9
$UCSNAME
  2

  9
$UCSORG
 10
0.0
 20
0.0
 30
0.0
  9
$UCSXDIR
 10
1.0
 20
0.0
 30
0.0
  9
$UCSYDIR
 10
0.0
 20
1.0
 30
0.0
  9
$UCSORTHOREF
  2

  9
$UCSORTHOVIEW
 70
     0
  9
$UCSORGTOP
 10
0.0
 20
0.0
 30
0.0
  9
$UCSORGBOTTOM
 10
0.0
 20
0.0
 30
0.0
  9
$UCSORGLEFT
 10
0.0
 20
0.0
 30
0.0
  9
$UCSORGRIGHT
 10
0.0
 20
0.0
 30
0.0
  9
$UCSORGFRONT
 10
0.0
 20
0.0
 30
0.0
  9
$UCSORGBACK
 10
0.0
 20
0.0
 30
0.0
  9
$PUCSBASE
  2

  9
$PUCSNAME
  2

  9
$PUCSORG
 10
0.0
 20
0.0
 30
0.0
  9
$PUCSXDIR
 10
1.0
 20
0.0
 30
0.0
  9
$PUCSYDIR
 10
0.0
 20
1.0
 30
0.0
  9
$PUCSORTHOREF
  2

  9
$PUCSORTHOVIEW
 70
     0
  9
$PUCSORGTOP
 10
0.0
 20
0.0
 30
0.0
  9
$PUCSORGBOTTOM
 10
0.0
 20
0.0
 30
0.0
  9
$PUCSORGLEFT
 10
0.0
 20
0.0
 30
0.0
  9
$PUCSORGRIGHT
 10
0.0
 20
0.0
 30
0.0
  9
$PUCSORGFRONT
 10
0.0
 20
0.0
 30
0.0
  9
$PUCSORGBACK
 10
0.0
 20
0.0
 30
0.0
  9
$USERI1
 70
     0
  9
$USERI2
 70
     0
  9
$USERI3
 70
     0
  9
$USERI4
 70
     0
  9
$USERI5
 70
     0
  9
$USERR1
 40
0.0
  9
$USERR2
 40
0.0
  9
$USERR3
 40
0.0
  9
$USERR4
 40
0.0
  9
$USERR5
 40
0.0
  9
$WORLDVIEW
 70
     1
  9
$SHADEDGE
 70
     3
  9
$SHADEDIF
 70
    70
  9
$TILEMODE
 70
     1
  9
$MAXACTVP
 70
    64
  9
$PINSBASE
 10
0.0
 20
0.0
 30
0.0
  9
$PLIMCHECK
 70
     0
  9
$PEXTMIN
 10
0.0
 20
0.0
 30
0.0
  9
$PEXTMAX
 10
0.0
 20
0.0
 30
0.0
  9
$PLIMMIN
 10
0.0
 20
0.0
  9
$PLIMMAX
 10
12.0
 20
9.0
  9
$UNITMODE
 70
     0
  9
$VISRETAIN
 70
     1
  9
$PLINEGEN
 70
     0
  9
$PSLTSCALE
 70
     1
  9
$TREEDEPTH
 70
  3020
  9
$CMLSTYLE
  2
Standard
  9
$CMLJUST
 70
     0
  9
$CMLSCALE
 40
20.0
  9
$PROXYGRAPHICS
 70
     1
  9
$MEASUREMENT
 70
     1
  9
$CELWEIGHT
370
    -1
  9
$ENDCAPS
280
     0
  9
$JOINSTYLE
280
     0
  9
$LWDISPLAY
290
     0
  9
$INSUNITS
 70
     4
  9
$HYPERLINKBASE
  1

  9
$STYLESHEET
  1

  9
$XEDIT
290
     1
  9
$CEPSNTYPE
380
     0
  9
$PSTYLEMODE
290
     1
  9
$FINGERPRINTGUID
  2
{501D0E9A-4F68-480E-B3FD-94E4E4F806DB}
  9
$VERSIONGUID
  2
{E2145E12-2A45-43DC-82C6-8E37A41D72DF}
  9
$EXTNAMES
290
     1
  9
$PSVPSCALE
 40
0.0
  9
$OLESTARTUP
290
     0
  9
$SORTENTS
280
   127
  9
$INDEXCTL
280
     0
  9
$HIDETEXT
280
     1
  9
$XCLIPFRAME
290
     0
  9
$HALOGAP
280
     0
  9
$OBSCOLOR
 70
   257
  9
$OBSLTYPE
280
     0
  9
$INTERSECTIONDISPLAY
280
     0
  9
$INTERSECTIONCOLOR
 70
   257
  9
$DIMASSOC
280
     2
  9
$PROJECTNAME
  1

  0
ENDSEC
  0
SECTION
  2
CLASSES
  0
CLASS
  1
ACDBDICTIONARYWDFLT
  2
AcDbDictionaryWithDefault
  3
ObjectDBX Classes
 90
        0
 91
        1
280
     0
281
     0
  0
CLASS
  1
DICTIONARYVAR
  2
AcDbDictionaryVar
  3
ObjectDBX Classes
 90
        0
 91
        3
280
     0
281
     0
  0
CLASS
  1
TABLESTYLE
  2
AcDbTableStyle
  3
ObjectDBX Classes
 90
     2047
 91
        1
280
     0
281
     0
  0
CLASS
  1
RASTERVARIABLES
  2
AcDbRasterVariables
  3
ISM
 90
        0
 91
        1
280
     0
281
     0
  0
CLASS
  1
IMAGEDEF
  2
AcDbRasterImageDef
  3
ISM
 90
        0
 91
        1
280
     0
281
     0
  0
CLASS
  1
IMAGEDEF_REACTOR
  2
AcDbRasterImageDefReactor
  3
ISM
 90
        1
 91
        1
280
     0
281
     0
  0
CLASS
  1
IMAGE
  2
AcDbRasterImage
  3
ISM
 90
      127
 91
        1
280
     0
281
     1
  0
CLASS
  1
SORTENTSTABLE
  2
AcDbSortentsTable
  3
ObjectDBX Classes
 90
        0
 91
        2
280
     0
281
     0
  0
ENDSEC
  0
SECTION
  2
TABLES
  0
TABLE
  2
VPORT
  5
8
330
0
100
AcDbSymbolTable
 70
     8
  0
VPORT
  5
130
330
8
100
AcDbSymbolTableRecord
100
AcDbViewportTableRecord
  2
*Active
 70
     0
 10
0.0
 20
0.0
 11
1.0
 21
1.0
 12
188.4650655275659
 22
260.3721345978773
 13
0.0
 23
0.0
 14
10.0
 24
10.0
 15
10.0
 25
10.0
 16
0.0
 26
0.0
 36
1.0
 17
0.0
 27
0.0
 37
0.0
 40
298.6998566482185
 41
1.662715517241379
 42
50.0
 43
0.0
 44
0.0
 50
0.0
 51
0.0
 71
     0
 72
  1000
 73
     1
 74
     3
 75
     0
 76
     0
 77
     0
 78
     0
281
     0
 65
     1
110
0.0
120
0.0
130
0.0
111
1.0
121
0.0
131
0.0
112
0.0
122
1.0
132
0.0
 79
     0
146
0.0
  0
ENDTAB
  0
TABLE
  2
LTYPE
  5
5
330
0
100
AcDbSymbolTable
 70
     1
  0
LTYPE
  5
14
330
5
100
AcDbSymbolTableRecord
100
AcDbLinetypeTableRecord
  2
ByBlock
 70
     0
  3

 72
    65
 73
     0
 40
0.0
  0
LTYPE
  5
15
330
5
100
AcDbSymbolTableRecord
100
AcDbLinetypeTableRecord
  2
ByLayer
 70
     0
  3

 72
    65
 73
     0
 40
0.0
  0
LTYPE
  5
16
330
5
100
AcDbSymbolTableRecord
100
AcDbLinetypeTableRecord
  2
Continuous
 70
     0
  3
Solid line
 72
    65
 73
     0
 40
0.0
  0
ENDTAB
  0
TABLE
  2
LAYER
  5
2
102
{ACAD_XDICTIONARY
360
FC
102
}
330
0
100
AcDbSymbolTable
 70
     2
  0
LAYER
  5
10
330
2
100
AcDbSymbolTableRecord
100
AcDbLayerTableRecord
  2
0
 70
     0
 62
     7
  6
Continuous
370
    -3
390
F
  0
LAYER
  5
FA
330
2
100
AcDbSymbolTableRecord
100
AcDbLayerTableRecord
  2
fond
 70
     0
 62
    -7
  6
Continuous
370
    -3
390
F
1001
AcAecLayerStandard
1000

1000

  0
ENDTAB
  0
TABLE
  2
STYLE
  5
3
330
0
100
AcDbSymbolTable
 70
     1
  0
STYLE
  5
11
330
3
100
AcDbSymbolTableRecord
100
AcDbTextStyleTableRecord
  2
Standard
 70
     0
 40
0.0
 41
1.0
 50
0.0
 71
     0
 42
2.5
  3
txt
  4

  0
ENDTAB
  0
TABLE
  2
VIEW
  5
6
330
0
100
AcDbSymbolTable
 70
     0
  0
ENDTAB
  0
TABLE
  2
UCS
  5
7
330
0
100
AcDbSymbolTable
 70
     0
  0
ENDTAB
  0
TABLE
  2
APPID
  5
9
330
0
100
AcDbSymbolTable
 70
     3
  0
APPID
  5
12
330
9
100
AcDbSymbolTableRecord
100
AcDbRegAppTableRecord
  2
ACAD
 70
     0
  0
APPID
  5
9E
330
9
100
AcDbSymbolTableRecord
100
AcDbRegAppTableRecord
  2
ACAD_PSEXT
 70
     0
  0
APPID
  5
FB
330
9
100
AcDbSymbolTableRecord
100
AcDbRegAppTableRecord
  2
AcAecLayerStandard
 70
     0
  0
ENDTAB
  0
TABLE
  2
DIMSTYLE
  5
A
330
0
100
AcDbSymbolTable
 70
     1
100
AcDbDimStyleTable
 71
     1
340
27
  0
DIMSTYLE
105
27
330
A
100
AcDbSymbolTableRecord
100
AcDbDimStyleTableRecord
  2
ISO-25
 70
     0
 41
2.5
 42
0.625
 43
3.75
 44
1.25
 73
     0
 74
     0
 77
     1
 78
     8
140
2.5
141
2.5
143
0.03937007874016
147
0.625
171
     3
172
     1
271
     2
272
     2
274
     3
278
    44
283
     0
284
     8
340
11
  0
ENDTAB
  0
TABLE
  2
BLOCK_RECORD
  5
1
330
0
100
AcDbSymbolTable
 70
     1
  0
BLOCK_RECORD
  5
1F
102
{ACAD_XDICTIONARY
360
10A
102
}
330
1
100
AcDbSymbolTableRecord
100
AcDbBlockTableRecord
  2
*Model_Space
340
22
  0
BLOCK_RECORD
  5
D2
330
1
100
AcDbSymbolTableRecord
100
AcDbBlockTableRecord
  2
*Paper_Space
340
D3
  0
BLOCK_RECORD
  5
D6
330
1
100
AcDbSymbolTableRecord
100
AcDbBlockTableRecord
  2
*Paper_Space0
340
D7
  0
ENDTAB
  0
ENDSEC
  0
SECTION
  2
BLOCKS
  0
BLOCK
  5
20
330
1F
100
AcDbEntity
  8
0
100
AcDbBlockBegin
  2
*Model_Space
 70
     0
 10
0.0
 20
0.0
 30
0.0
  3
*Model_Space
  1

  0
ENDBLK
  5
21
330
1F
100
AcDbEntity
  8
0
100
AcDbBlockEnd
  0
BLOCK
  5
D4
330
D2
100
AcDbEntity
 67
     1
  8
0
100
AcDbBlockBegin
  2
*Paper_Space
 70
     0
 10
0.0
 20
0.0
 30
0.0
  3
*Paper_Space
  1

  0
ENDBLK
  5
D5
330
D2
100
AcDbEntity
 67
     1
  8
0
100
AcDbBlockEnd
  0
BLOCK
  5
D8
330
D6
100
AcDbEntity
 67
     1
  8
0
100
AcDbBlockBegin
  2
*Paper_Space0
 70
     0
 10
0.0
 20
0.0
 30
0.0
  3
*Paper_Space0
  1

  0
ENDBLK
  5
D9
330
D6
100
AcDbEntity
 67
     1
  8
0
100
AcDbBlockEnd
  0
ENDSEC
  0
SECTION
  2
ENTITIES
  0
IMAGE
  5
F3
330
1F
100
AcDbEntity
  8
fond
 92
      140
310
8C00000001000000840000000600000005000000337F453C2F95314052A4350D54C44D400000000000000000907C2866AFEF2C4029A001E3EF067A4000000000000000008070375173D1744011C1E3206D337A4000000000000000008E84CAC94803754093AB46FC3D284F400000000000000000337F453C2F95314052A435
310
0D54C44D400000000000000000
100
AcDbRasterImage
 90
        0
 10
17.58275200554562
 20
59.53381505126221
 30
0.0
 11
0.3544188193130473
 21
0.0030929661787016
 31
0.0
 12
-0.0030929661787016
 22
0.3544188193130473
 32
0.0
 13
899.0
 23
1007.0
340
F1
 70
     7
280
     0
281
    50
282
    50
283
     0
360
F2
 71
     1
 91
        2
 14
-0.5
 24
-0.5
 14
898.4999999999999
 24
1006.5
  0
LWPOLYLINE
  5
F5
330
1F
100
AcDbEntity
  8
0
 62
     1
100
AcDbPolyline
 90
        8
 70
     1
 43
0.0
 10
96.38533540333078
 20
190.9525259923157
 10
146.3853354033308
 20
190.9525259923157
 42
0.4142135623730948
 10
156.3853354033308
 20
200.9525259923157
 10
156.3853354033308
 20
218.9525259923156
 42
0.414213562373095
 10
146.3853354033308
 20
228.9525259923157
 10
96.38533540333078
 20
228.9525259923157
 42
0.4142135623730951
 10
86.38533540333076
 20
218.9525259923157
 10
86.38533540333076
 20
200.9525259923157
 42
0.4142135623730951
  0
LWPOLYLINE
  5
F6
330
1F
100
AcDbEntity
  8
0
 62
     1
100
AcDbPolyline
 90
        8
 70
     1
 43
0.0
 10
95.38533540333078
 20
255.6123582077201
 10
147.3853354033307
 20
255.6123582077201
 42
0.4142135623730951
 10
156.3853354033307
 20
264.6123582077201
 10
156.3853354033307
 20
264.6123582077201
 42
0.4142135623730951
 10
147.3853354033307
 20
273.6123582077201
 10
95.38533540333078
 20
273.6123582077201
 42
0.4142135623730951
 10
86.38533540333078
 20
264.6123582077201
 10
86.38533540333078
 20
264.6123582077201
 42
0.4142135623730951
  0
LWPOLYLINE
  5
F7
330
1F
100
AcDbEntity
  8
0
 62
     1
100
AcDbPolyline
 90
        8
 70
     1
 43
0.0
 10
95.38533540333078
 20
311.0334004593455
 10
147.3853354033307
 20
311.0334004593455
 42
0.4142135623730951
 10
156.3853354033307
 20
320.0334004593455
 10
156.3853354033307
 20
320.0334004593455
 42
0.4142135623730951
 10
147.3853354033307
 20
329.0334004593455
 10
95.38533540333078
 20
329.0334004593455
 42
0.4142135623730951
 10
86.38533540333078
 20
320.0334004593455
 10
86.38533540333078
 20
320.0334004593455
 42
0.4142135623730951
  0
SPLINE
  5
F8
330
1F
100
AcDbEntity
  8
0
 62
     1
100
AcDbSpline
210
0.0
220
0.0
230
1.0
 70
     8
 71
     3
 72
    17
 73
    13
 74
     0
 42
0.0000000001
 43
0.0000000001
 40
0.0
 40
0.0
 40
0.0
 40
0.0
 40
28.34228328642012
 40
33.42342296046798
 40
42.88493670930892
 40
55.45207917886749
 40
96.40462028076553
 40
141.7416369236944
 40
177.4234599218003
 40
207.2188217693915
 40
238.9659681571063
 40
259.9699088346597
 40
259.9699088346597
 40
259.9699088346597
 40
259.9699088346597
 10
93.38533540333079
 20
375.447183567301
 30
0.0
 10
84.84762762520361
 20
379.4921109110441
 30
0.0
 10
71.30407790946688
 20
387.5015260090084
 30
0.0
 10
60.58125079242993
 20
376.3677949414375
 30
0.0
 10
61.70110741418334
 20
366.4061392956282
 30
0.0
 10
71.16528687326269
 20
348.0122033636243
 30
0.0
 10
74.50557149027901
 20
313.5532431747098
 30
0.0
 10
64.00373988263959
 20
273.9772480187234
 30
0.0
 10
48.33237074950696
 20
240.3994336006463
 30
0.0
 10
41.70116544528748
 20
208.357602085126
 30
0.0
 10
50.77082446078803
 20
179.1394286942114
 30
0.0
 10
68.24970803376254
 20
171.0456191928511
 30
0.0
 10
75.22718036026219
 20
170.1744784065767
 30
0.0
  0
SPLINE
  5
FF
330
1F
100
AcDbEntity
  8
0
 62
     1
100
AcDbSpline
210
0.0
220
0.0
230
1.0
 70
     8
 71
     3
 72
    34
 73
    30
 74
     0
 42
0.0000000001
 43
0.0000000001
 40
3.184428984790055
 40
3.184428984790055
 40
3.184428984790055
 40
3.184428984790055
 40
10.08732533019869
 40
27.73678309269657
 40
52.03287940454192
 40
77.77427384096822
 40
106.2522825364919
 40
119.1616675116518
 40
125.3195545429315
 40
128.5298783546211
 40
131.8862451876995
 40
135.1462160132027
 40
138.9792149529024
 40
146.3817177591367
 40
164.8156339703573
 40
206.4705786707995
 40
236.5553179730683
 40
262.0644246023153
 40
310.7306249196164
 40
355.485835745478
 40
399.4335087426226
 40
417.6423199016117
 40
431.2109982641525
 40
438.8366372412284
 40
448.1815592413544
 40
460.7773331061247
 40
477.2528008253209
 40
507.9061306116356
 40
551.2042496189931
 40
551.2042496189931
 40
551.2042496189931
 40
551.2042496189931
 10
151.1815952756246
 20
353.0372527918745
 30
0.0
 10
152.5817575146439
 20
351.1943165109797
 30
0.0
 10
158.3307481639291
 20
345.1894935447504
 30
0.0
 10
174.315043145799
 20
339.2893699588431
 30
0.0
 10
197.5319661141231
 20
341.2051037825246
 30
0.0
 10
220.7750251014358
 20
356.0440083319153
 30
0.0
 10
230.2090792895993
 20
377.3115534104196
 30
0.0
 10
233.4948963415871
 20
392.9012518269526
 30
0.0
 10
233.8800326367191
 20
400.2281880089201
 30
0.0
 10
234.8663196687826
 20
404.5637427003574
 30
0.0
 10
238.1143128724968
 20
406.3821474531033
 30
0.0
 10
241.7233788282709
 20
405.4050031350061
 30
0.0
 10
245.0739296061606
 20
401.7477046774894
 30
0.0
 10
249.3099829081651
 20
392.729750254132
 30
0.0
 10
253.3009865848538
 20
370.1531945516815
 30
0.0
 10
245.3509329771264
 20
340.0798945972347
 30
0.0
 10
231.8835446653464
 20
310.95273353729
 30
0.0
 10
220.6278558601598
 20
277.2047520155163
 30
0.0
 10
233.6921863866465
 20
237.0393620891443
 30
0.0
 10
255.9177376035932
 20
197.7826009687825
 30
0.0
 10
268.6786164730538
 20
163.7904119174199
 30
0.0
 10
273.2995836739205
 20
139.3606773528988
 30
0.0
 10
273.2453548072887
 20
125.2784576633982
 30
0.0
 10
265.7594237953925
 20
117.5253753233448
 30
0.0
 10
255.6811179022475
 20
115.0015452150348
 30
0.0
 10
243.0130656920501
 20
119.5878122481623
 30
0.0
 10
228.6970622007554
 20
133.7037598211929
 30
0.0
 10
209.0317276813007
 20
156.2089027742041
 30
0.0
 10
184.7975161683413
 20
168.0344000002813
 30
0.0
 10
170.3778192011571
 20
168.6573275096183
 30
0.0
  0
LINE
  5
107
330
1F
100
AcDbEntity
  8
0
 62
     1
100
AcDbLine
 10
93.38533540333079
 20
375.447183567301
 30
0.0
 11
93.38533540333079
 21
350.3680029948847
 31
0.0
  0
LINE
  5
108
330
1F
100
AcDbEntity
  8
0
 62
     1
100
AcDbLine
 10
98.38533540333079
 20
345.3680029948846
 30
0.0
 11
144.3853354033308
 21
345.3680029948846
 31
0.0
  0
LINE
  5
109
330
1F
100
AcDbEntity
  8
0
 62
     1
100
AcDbLine
 10
149.3853354033307
 20
350.3680029948847
 30
0.0
 11
149.3853354033308
 21
352.4322980697879
 31
0.0
  0
ARC
  5
10C
330
1F
100
AcDbEntity
  8
0
 62
     1
100
AcDbCircle
 10
150.3853354033309
 20
352.4322980697879
 30
0.0
 40
1.0
100
AcDbArc
 50
37.22558378123145
 51
180.0000000000032
  0
ARC
  5
10D
330
1F
100
AcDbEntity
  8
0
 62
     1
100
AcDbCircle
 10
144.3853354033308
 20
350.3680029948847
 30
0.0
 40
5.0
100
AcDbArc
 50
270.0
 51
0.0
  0
ARC
  5
10E
330
1F
100
AcDbEntity
  8
0
 62
     1
100
AcDbCircle
 10
98.38533540333079
 20
350.3680029948847
 30
0.0
 40
5.0
100
AcDbArc
 50
180.0
 51
269.9999999999999
  0
LINE
  5
10F
330
1F
100
AcDbEntity
  8
0
 62
     1
100
AcDbLine
 10
76.35106901037511
 20
171.1667745329006
 30
0.0
 11
76.35106901037513
 21
175.0959716893877
 31
0.0
  0
LINE
  5
110
330
1F
100
AcDbEntity
  8
0
 62
     1
100
AcDbLine
 10
77.35550582994339
 20
176.0959618466553
 30
0.0
 11
168.4254155311706
 21
175.6918971121118
 31
0.0
  0
LINE
  5
111
330
1F
100
AcDbEntity
  8
0
 62
     1
100
AcDbLine
 10
169.4209787116023
 20
174.6919069548442
 30
0.0
 11
169.4209787116023
 21
169.6563957038164
 31
0.0
  0
ARC
  5
113
330
1F
100
AcDbEntity
  8
0
 62
     1
100
AcDbCircle
 10
77.35106901037513
 20
175.0959716893877
 30
0.0
 40
1.0
100
AcDbArc
 50
89.74578813023036
 51
180.0
  0
ARC
  5
114
330
1F
100
AcDbEntity
  8
0
 62
     1
100
AcDbCircle
 10
168.4209787116023
 20
174.6919069548442
 30
0.0
 40
1.0
100
AcDbArc
 50
0.0
 51
89.74578813023034
  0
ARC
  5
115
330
1F
100
AcDbEntity
  8
0
 62
     1
100
AcDbCircle
 10
75.35106901037496
 20
171.1667745329146
 30
0.0
 40
1.0
100
AcDbArc
 50
262.8834187347267
 51
359.9999999991939
  0
ARC
  5
116
330
1F
100
AcDbEntity
  8
0
 62
     1
100
AcDbCircle
 10
170.4209787116022
 20
169.6563957038163
 30
0.0
 40
1.0
100
AcDbArc
 50
179.9999999999935
 51
267.5263738448454
  0
CIRCLE
  5
118
330
1F
100
AcDbEntity
  8
0
 62
     1
100
AcDbCircle
 10
83.38533540333077
 20
320.0334004593455
 30
0.0
 40
1.0
  0
CIRCLE
  5
119
330
1F
100
AcDbEntity
  8
0
 62
     1
100
AcDbCircle
 10
159.3853354033307
 20
320.0334004593455
 30
0.0
 40
0.9999999999999998
  0
CIRCLE
  5
11A
330
1F
100
AcDbEntity
  8
0
 62
     1
100
AcDbCircle
 10
83.38533540333077
 20
264.6123582077201
 30
0.0
 40
1.0
  0
CIRCLE
  5
11B
330
1F
100
AcDbEntity
  8
0
 62
     1
100
AcDbCircle
 10
159.3853354033307
 20
264.6123582077201
 30
0.0
 40
0.9999999999999998
  0
CIRCLE
  5
11C
330
1F
100
AcDbEntity
  8
0
 62
     1
100
AcDbCircle
 10
83.38533540333079
 20
209.9525259923157
 30
0.0
 40
1.0
  0
CIRCLE
  5
11D
330
1F
100
AcDbEntity
  8
0
 62
     1
100
AcDbCircle
 10
159.3853354033307
 20
209.9525259923157
 30
0.0
 40
0.9999999999999998
  0
CIRCLE
  5
11E
330
1F
100
AcDbEntity
  8
0
 62
     1
100
AcDbCircle
 10
196.3756254408229
 20
187.2011003359488
 30
0.0
 40
3.5
  0
CIRCLE
  5
11F
330
1F
100
AcDbEntity
  8
0
 62
     1
100
AcDbCircle
 10
248.1363871808589
 20
145.9095007062616
 30
0.0
 40
3.5
  0
CIRCLE
  5
120
330
1F
100
AcDbEntity
  8
0
 62
     1
100
AcDbCircle
 10
260.9972323112556
 20
125.7907507042865
 30
0.0
 40
1.0
  0
CIRCLE
  5
121
330
1F
100
AcDbEntity
  8
0
 62
     1
100
AcDbCircle
 10
248.9987327391195
 20
190.9335759818673
 30
0.0
 40
1.0
  0
CIRCLE
  5
122
330
1F
100
AcDbEntity
  8
0
 62
     1
100
AcDbCircle
 10
220.7506503323921
 20
254.0893382623949
 30
0.0
 40
1.0
  0
CIRCLE
  5
123
330
1F
100
AcDbEntity
  8
0
 62
     1
100
AcDbCircle
 10
228.7709948479867
 20
321.8845682905792
 30
0.0
 40
1.0
  0
CIRCLE
  5
124
330
1F
100
AcDbEntity
  8
0
 62
     1
100
AcDbCircle
 10
240.7562917542741
 20
390.282023252171
 30
0.0
 40
1.0
  0
CIRCLE
  5
125
330
1F
100
AcDbEntity
  8
0
 62
     1
100
AcDbCircle
 10
155.4841244987042
 20
339.2320001336641
 30
0.0
 40
1.0
  0
CIRCLE
  5
126
330
1F
100
AcDbEntity
  8
0
 62
     1
100
AcDbCircle
 10
71.94618943816158
 20
372.8619531683023
 30
0.0
 40
1.0
  0
CIRCLE
  5
127
330
1F
100
AcDbEntity
  8
0
 62
     1
100
AcDbCircle
 10
75.48562675050607
 20
290.7583541276163
 30
0.0
 40
1.0
  0
CIRCLE
  5
128
330
1F
100
AcDbEntity
  8
0
 62
     1
100
AcDbCircle
 10
55.61556063322314
 20
233.5825460698717
 30
0.0
 40
1.0
  0
CIRCLE
  5
129
330
1F
100
AcDbEntity
  8
0
 62
     1
100
AcDbCircle
 10
232.0419544935248
 20
202.7996474405691
 30
0.0
 40
1.0
  0
CIRCLE
  5
12A
330
1F
100
AcDbEntity
  8
0
 62
     1
100
AcDbCircle
 10
203.9480204944687
 20
233.1714662153605
 30
0.0
 40
1.0
  0
LWPOLYLINE
  5
12D
330
1F
100
AcDbEntity
  8
0
 62
     1
100
AcDbPolyline
 90
        8
 70
     1
 43
0.0
 10
207.7543000337597
 20
227.5839067039457
 10
226.7674761143966
 20
207.0291229462241
 42
0.414213562373094
 10
228.1806175371952
 20
206.9740655291854
 10
228.180617537195
 20
206.9740655291853
 42
0.4142135623730948
 10
228.2356749542338
 20
208.3872069519838
 10
209.2224988735969
 20
228.9419907097055
 42
0.4142135623730951
 10
207.8093574507984
 20
228.9970481267442
 10
207.8093574507985
 20
228.9970481267443
 42
0.4142135623731012
  0
ENDSEC
  0
SECTION
  2
OBJECTS
  0
DICTIONARY
  5
C
330
0
100
AcDbDictionary
281
     1
  3
ACAD_COLOR
350
6B
  3
ACAD_GROUP
350
D
  3
ACAD_IMAGE_DICT
350
EF
  3
ACAD_IMAGE_VARS
350
F0
  3
ACAD_LAYOUT
350
1A
  3
ACAD_MATERIAL
350
6A
  3
ACAD_MLINESTYLE
350
17
  3
ACAD_PLOTSETTINGS
350
19
  3
ACAD_PLOTSTYLENAME
350
E
  3
ACAD_TABLESTYLE
350
7E
  3
AcDbVariableDictionary
350
5E
  0
DICTIONARY
  5
FC
330
2
100
AcDbDictionary
280
     1
281
     1
  3
ACAD_LAYERFILTERS
360
FE
  3
ACLYDICTIONARY
360
FD
  0
DICTIONARY
  5
10A
330
1F
100
AcDbDictionary
280
     1
281
     1
  3
ACAD_SORTENTS
360
10B
  0
IMAGEDEF_REACTOR
  5
F2
330
F3
100
AcDbRasterImageDefReactor
 90
        2
330
F3
  0
DICTIONARY
  5
6B
102
{ACAD_REACTORS
330
C
102
}
330
C
100
AcDbDictionary
281
     1
  0
DICTIONARY
  5
D
102
{ACAD_REACTORS
330
C
102
}
330
C
100
AcDbDictionary
281
     1
  0
DICTIONARY
  5
EF
102
{ACAD_REACTORS
330
C
102
}
330
C
100
AcDbDictionary
281
     1
  3
descript
350
F1
  0
RASTERVARIABLES
  5
F0
102
{ACAD_REACTORS
330
C
102
}
330
C
100
AcDbRasterVariables
 90
        0
 70
     1
 71
     1
 72
     1
  0
DICTIONARY
  5
1A
102
{ACAD_REACTORS
330
C
102
}
330
C
100
AcDbDictionary
281
     1
  3
Model
350
22
  3
Présentation1
350
D3
  3
Présentation2
350
D7
  0
DICTIONARY
  5
6A
102
{ACAD_REACTORS
330
C
102
}
330
C
100
AcDbDictionary
281
     1
  0
DICTIONARY
  5
17
102
{ACAD_REACTORS
330
C
102
}
330
C
100
AcDbDictionary
281
     1
  3
Standard
350
18
  0
DICTIONARY
  5
19
102
{ACAD_REACTORS
330
C
102
}
330
C
100
AcDbDictionary
281
     1
  0
ACDBDICTIONARYWDFLT
  5
E
102
{ACAD_REACTORS
330
C
102
}
330
C
100
AcDbDictionary
281
     1
  3
Normal
350
F
100
AcDbDictionaryWithDefault
340
F
  0
DICTIONARY
  5
7E
102
{ACAD_REACTORS
330
C
102
}
330
C
100
AcDbDictionary
281
     1
  3
Standard
350
7F
  0
DICTIONARY
  5
5E
102
{ACAD_REACTORS
330
C
102
}
330
C
100
AcDbDictionary
281
     1
  3
CTABLESTYLE
350
84
  3
DIMASSOC
350
5F
  3
HIDETEXT
350
63
  0
DICTIONARY
  5
FE
102
{ACAD_REACTORS
330
FC
102
}
330
FC
100
AcDbDictionary
281
     1
  0
DICTIONARY
  5
FD
102
{ACAD_REACTORS
330
FC
102
}
330
FC
100
AcDbDictionary
281
     1
1001
ACAD
1000
<All
  0
SORTENTSTABLE
  5
10B
102
{ACAD_REACTORS
330
10A
102
}
330
10A
100
AcDbSortentsTable
330
1F
331
113
  5
110
331
F6
  5
F6
331
111
  5
113
331
10F
  5
10F
331
10D
  5
10C
331
109
  5
10D
331
F8
  5
F8
331
107
  5
107
331
114
  5
114
331
F7
  5
F7
331
F5
  5
F5
331
FF
  5
FF
331
110
  5
111
331
F3
  5
F3
331
10E
  5
108
331
10C
  5
10E
331
108
  5
109
  0
IMAGEDEF
  5
F1
102
{ACAD_REACTORS
330
EF
330
F2
102
}
330
EF
100
AcDbRasterImageDef
 90
        0
  1
D:\Lutherie\descript.jpg
 10
899.0
 20
1007.0
 11
0.2645833333333333
 21
0.2645833333333333
280
     1
281
     5
  0
LAYOUT
  5
22
102
{ACAD_REACTORS
330
1A
102
}
330
1A
100
AcDbPlotSettings
  1

  2
none_device
  4
ISO_A4_(210.00_x_297.00_MM)
  6

 40
7.5
 41
20.0
 42
7.5
 43
20.0
 44
210.0
 45
297.0
 46
11.54999923706054
 47
-13.65000009536743
 48
0.0
 49
0.0
140
0.0
141
0.0
142
1.0
143
8.704084754739808
 70
 11952
 72
     1
 73
     0
 74
     0
  7

 75
     0
147
0.1148885871608098
 76
     0
 77
     2
 78
   300
148
0.0
149
0.0
100
AcDbLayout
  1
Model
 70
     1
 71
     0
 10
0.0
 20
0.0
 11
12.0
 21
9.0
 12
0.0
 22
0.0
 32
0.0
 14
0.0
 24
0.0
 34
0.0
 15
0.0
 25
0.0
 35
0.0
146
0.0
 13
0.0
 23
0.0
 33
0.0
 16
1.0
 26
0.0
 36
0.0
 17
0.0
 27
1.0
 37
0.0
 76
     0
330
1F
1001
ACAD_PSEXT
1000
None
1000
None
1000
Not applicable
1000
The layout will not be plotted unless a new plotter configuration name is selected.
1070
     0
  0
LAYOUT
  5
D3
102
{ACAD_REACTORS
330
1A
102
}
330
1A
100
AcDbPlotSettings
  1

  2
C:\Documents and Settings\basas\Application Data\Autodesk\AutoCAD 2005\R16.1\enu\plotters\Default Windows System Printer.pc3
  4

  6

 40
0.0
 41
0.0
 42
0.0
 43
0.0
 44
0.0
 45
0.0
 46
0.0
 47
0.0
 48
0.0
 49
0.0
140
0.0
141
0.0
142
1.0
143
1.0
 70
   688
 72
     0
 73
     0
 74
     5
  7

 75
    16
147
1.0
 76
     0
 77
     2
 78
   300
148
0.0
149
0.0
100
AcDbLayout
  1
Présentation1
 70
     1
 71
     1
 10
0.0
 20
0.0
 11
12.0
 21
9.0
 12
0.0
 22
0.0
 32
0.0
 14
0.0
 24
0.0
 34
0.0
 15
0.0
 25
0.0
 35
0.0
146
0.0
 13
0.0
 23
0.0
 33
0.0
 16
1.0
 26
0.0
 36
0.0
 17
0.0
 27
1.0
 37
0.0
 76
     0
330
D2
  0
LAYOUT
  5
D7
102
{ACAD_REACTORS
330
1A
102
}
330
1A
100
AcDbPlotSettings
  1

  2
C:\Documents and Settings\basas\Application Data\Autodesk\AutoCAD 2005\R16.1\enu\plotters\Default Windows System Printer.pc3
  4

  6

 40
0.0
 41
0.0
 42
0.0
 43
0.0
 44
0.0
 45
0.0
 46
0.0
 47
0.0
 48
0.0
 49
0.0
140
0.0
141
0.0
142
1.0
143
1.0
 70
   688
 72
     0
 73
     0
 74
     5
  7

 75
    16
147
1.0
 76
     0
 77
     2
 78
   300
148
0.0
149
0.0
100
AcDbLayout
  1
Présentation2
 70
     1
 71
     2
 10
0.0
 20
0.0
 11
12.0
 21
9.0
 12
0.0
 22
0.0
 32
0.0
 14
0.0
 24
0.0
 34
0.0
 15
0.0
 25
0.0
 35
0.0
146
0.0
 13
0.0
 23
0.0
 33
0.0
 16
1.0
 26
0.0
 36
0.0
 17
0.0
 27
1.0
 37
0.0
 76
     0
330
D6
  0
MLINESTYLE
  5
18
102
{ACAD_REACTORS
330
17
102
}
330
17
100
AcDbMlineStyle
  2
STANDARD
 70
     0
  3

 62
   256
 51
90.0
 52
90.0
 71
     2
 49
0.5
 62
   256
  6
BYLAYER
 49
-0.5
 62
   256
  6
BYLAYER
  0
ACDBPLACEHOLDER
  5
F
102
{ACAD_REACTORS
330
E
102
}
330
E
  0
TABLESTYLE
  5
7F
102
{ACAD_REACTORS
330
7E
102
}
330
7E
100
AcDbTableStyle
  3
Standard
 70
     0
 71
     0
 40
1.5
 41
1.5
280
     0
281
     0
  7
Standard
140
4.5
170
     2
 62
     0
 63
     7
283
     0
274
    -2
284
     1
 64
     0
275
    -2
285
     1
 65
     0
276
    -2
286
     1
 66
     0
277
    -2
287
     1
 67
     0
278
    -2
288
     1
 68
     0
279
    -2
289
     1
 69
     0
  7
Standard
140
6.0
170
     5
 62
     0
 63
     7
283
     0
274
    -2
284
     1
 64
     0
275
    -2
285
     1
 65
     0
276
    -2
286
     1
 66
     0
277
    -2
287
     1
 67
     0
278
    -2
288
     1
 68
     0
279
    -2
289
     1
 69
     0
  7
Standard
140
4.5
170
     5
 62
     0
 63
     7
283
     0
274
    -2
284
     1
 64
     0
275
    -2
285
     1
 65
     0
276
    -2
286
     1
 66
     0
277
    -2
287
     1
 67
     0
278
    -2
288
     1
 68
     0
279
    -2
289
     1
 69
     0
  0
DICTIONARYVAR
  5
84
102
{ACAD_REACTORS
330
5E
102
}
330
5E
100
DictionaryVariables
280
     0
  1
STANDARD
  0
DICTIONARYVAR
  5
5F
102
{ACAD_REACTORS
330
5E
102
}
330
5E
100
DictionaryVariables
280
     0
  1
2
  0
DICTIONARYVAR
  5
63
102
{ACAD_REACTORS
330
5E
102
}
330
5E
100
DictionaryVariables
280
     0
  1
1
  0
ENDSEC
  0
EOF
