  0
SECTION
  2
HEADER
  9
$ACADVER
  1
AC1009
  9
$INSBASE
 10
0.0
 20
0.0
 30
0.0
  9
$EXTMIN
 10
1714.3277049282849
 20
1147.0115014377211
 30
0.0
  9
$EXTMAX
 10
2206.436389183239
 20
1527.6760870422049
 30
0.0
  9
$LIMMIN
 10
0.0
 20
0.0
  9
$LIMMAX
 10
420.0
 20
297.0
  9
$ORTHOMODE
 70
     0
  9
$REGENMODE
 70
     1
  9
$FILLMODE
 70
     1
  9
$QTEXTMODE
 70
     0
  9
$MIRRTEXT
 70
     0
  9
$DRAGMODE
 70
     2
  9
$LTSCALE
 40
1.0
  9
$OSMODE
 70
   167
  9
$ATTMODE
 70
     1
  9
$TEXTSIZE
 40
2.5
  9
$TRACEWID
 40
1.0
  9
$TEXTSTYLE
  7
STANDARD
  9
$CLAYER
  8
0
  9
$CELTYPE
  6
BYLAYER
  9
$CECOLOR
 62
   256
  9
$DIMSCALE
 40
1.0
  9
$DIMASZ
 40
2.5
  9
$DIMEXO
 40
0.625
  9
$DIMDLI
 40
3.75
  9
$DIMRND
 40
0.0
  9
$DIMDLE
 40
0.0
  9
$DIMEXE
 40
1.25
  9
$DIMTP
 40
0.0
  9
$DIMTM
 40
0.0
  9
$DIMTXT
 40
2.5
  9
$DIMCEN
 40
2.5
  9
$DIMTSZ
 40
0.0
  9
$DIMTOL
 70
     0
  9
$DIMLIM
 70
     0
  9
$DIMTIH
 70
     0
  9
$DIMTOH
 70
     0
  9
$DIMSE1
 70
     0
  9
$DIMSE2
 70
     0
  9
$DIMTAD
 70
     1
  9
$DIMZIN
 70
     8
  9
$DIMBLK
  1

  9
$DIMASO
 70
     1
  9
$DIMSHO
 70
     1
  9
$DIMPOST
  1

  9
$DIMAPOST
  1

  9
$DIMALT
 70
     0
  9
$DIMALTD
 70
     3
  9
$DIMALTF
 40
0.03937007874016
  9
$DIMLFAC
 40
1.0
  9
$DIMTOFL
 70
     1
  9
$DIMTVP
 40
0.0
  9
$DIMTIX
 70
     0
  9
$DIMSOXD
 70
     0
  9
$DIMSAH
 70
     0
  9
$DIMBLK1
  1

  9
$DIMBLK2
  1

  9
$DIMSTYLE
  2
ISO-25
  9
$DIMCLRD
 70
     0
  9
$DIMCLRE
 70
     0
  9
$DIMCLRT
 70
     0
  9
$DIMTFAC
 40
1.0
  9
$DIMGAP
 40
0.625
  9
$LUNITS
 70
     2
  9
$LUPREC
 70
     4
  9
$SKETCHINC
 40
1.0
  9
$FILLETRAD
 40
0.0
  9
$AUNITS
 70
     0
  9
$AUPREC
 70
     0
  9
$MENU
  1
.
  9
$ELEVATION
 40
0.0
  9
$PELEVATION
 40
0.0
  9
$THICKNESS
 40
0.0
  9
$LIMCHECK
 70
     0
  9
$BLIPMODE
 70
     0
  9
$CHAMFERA
 40
0.0
  9
$CHAMFERB
 40
0.0
  9
$SKPOLY
 70
     0
  9
$TDCREATE
 40
2455617.8149776389
  9
$TDUPDATE
 40
2455617.8223175928
  9
$TDINDWG
 40
0.0073571412
  9
$TDUSRTIMER
 40
0.0073459259
  9
$USRTIMER
 70
     1
  9
$ANGBASE
 50
0.0
  9
$ANGDIR
 70
     0
  9
$PDMODE
 70
     0
  9
$PDSIZE
 40
0.0
  9
$PLINEWID
 40
0.0
  9
$COORDS
 70
     1
  9
$SPLFRAME
 70
     0
  9
$SPLINETYPE
 70
     6
  9
$SPLINESEGS
 70
     8
  9
$ATTDIA
 70
     0
  9
$ATTREQ
 70
     1
  9
$HANDLING
 70
     1
  9
$HANDSEED
  5
86E
  9
$SURFTAB1
 70
     6
  9
$SURFTAB2
 70
     6
  9
$SURFTYPE
 70
     6
  9
$SURFU
 70
     6
  9
$SURFV
 70
     6
  9
$UCSNAME
  2

  9
$UCSORG
 10
0.0
 20
0.0
 30
0.0
  9
$UCSXDIR
 10
1.0
 20
0.0
 30
0.0
  9
$UCSYDIR
 10
0.0
 20
1.0
 30
0.0
  9
$PUCSNAME
  2

  9
$PUCSORG
 10
0.0
 20
0.0
 30
0.0
  9
$PUCSXDIR
 10
1.0
 20
0.0
 30
0.0
  9
$PUCSYDIR
 10
0.0
 20
1.0
 30
0.0
  9
$USERI1
 70
     0
  9
$USERI2
 70
     0
  9
$USERI3
 70
     0
  9
$USERI4
 70
     0
  9
$USERI5
 70
     0
  9
$USERR1
 40
0.0
  9
$USERR2
 40
0.0
  9
$USERR3
 40
0.0
  9
$USERR4
 40
0.0
  9
$USERR5
 40
0.0
  9
$WORLDVIEW
 70
     1
  9
$SHADEDGE
 70
     3
  9
$SHADEDIF
 70
    70
  9
$TILEMODE
 70
     1
  9
$MAXACTVP
 70
    64
  9
$PLIMCHECK
 70
     0
  9
$PEXTMIN
 10
0.0
 20
0.0
 30
0.0
  9
$PEXTMAX
 10
0.0
 20
0.0
 30
0.0
  9
$PLIMMIN
 10
0.0
 20
0.0
  9
$PLIMMAX
 10
12.0
 20
9.0
  9
$UNITMODE
 70
     0
  9
$VISRETAIN
 70
     1
  9
$PLINEGEN
 70
     0
  9
$PSLTSCALE
 70
     1
  0
ENDSEC
  0
SECTION
  2
TABLES
  0
TABLE
  2
VPORT
 70
     1
  0
VPORT
  2
*ACTIVE
 70
     0
 10
0.0
 20
0.0
 11
1.0
 21
1.0
 12
1959.573201075332
 22
1337.9001539426381
 13
0.0
 23
0.0
 14
10.0
 24
10.0
 15
10.0
 25
10.0
 16
0.0
 26
0.0
 36
1.0
 17
0.0
 27
0.0
 37
0.0
 40
449.57142441350692
 41
1.851814516129032
 42
50.0
 43
0.0
 44
0.0
 50
0.0
 51
0.0
 71
     0
 72
  1000
 73
     1
 74
     3
 75
     0
 76
     0
 77
     0
 78
     0
  0
ENDTAB
  0
TABLE
  2
LTYPE
 70
     3
  0
LTYPE
  2
CONTINUOUS
 70
     0
  3
Solid line
 72
    65
 73
     0
 40
0.0
  0
LTYPE
  2
CENTERX2
 70
     0
  3
Center (2x) ________  __  ________  __  _____
 72
    65
 73
     4
 40
101.59999999999999
 49
63.5
 49
-12.699999999999999
 49
12.699999999999999
 49
-12.699999999999999
  0
ENDTAB
  0
TABLE
  2
LAYER
 70
     1
  0
LAYER
  2
0
 70
     0
 62
     7
  6
CONTINUOUS
  0
ENDTAB
  0
TABLE
  2
STYLE
 70
     2
  0
STYLE
  2
STANDARD
 70
     0
 40
0.0
 41
1.0
 50
0.0
 71
     0
 42
2.5
  3
txt
  4

  0
STYLE
  2
ANNOTATIF
 70
     0
 40
0.0
 41
1.0
 50
0.0
 71
     0
 42
2.5
  3
txt
  4

  0
ENDTAB
  0
TABLE
  2
VIEW
 70
     0
  0
ENDTAB
  0
TABLE
  2
UCS
 70
     0
  0
ENDTAB
  0
TABLE
  2
APPID
 70
     8
  0
APPID
  2
ACAD
 70
     0
  0
APPID
  2
ACAD_PSEXT
 70
     0
  0
APPID
  2
ACADANNOPO
 70
     0
  0
APPID
  2
ACADANNOTATIVE
 70
     0
  0
APPID
  2
ACAD_DSTYLE_DIMJAG
 70
     0
  0
APPID
  2
ACAD_DSTYLE_DIMTALN
 70
     0
  0
APPID
  2
ACAD_MLEADERVER
 70
     0
  0
APPID
  2
ACAD_EXEMPT_FROM_CAD_STANDARDS
 70
     0
  0
ENDTAB
  0
TABLE
  2
DIMSTYLE
 70
     4
  0
DIMSTYLE
  2
STANDARD
 70
     0
  3

  4

  5

  6

  7

 40
1.0
 41
0.18
 42
0.0625
 43
0.38
 44
0.18
 45
0.0
 46
0.0
 47
0.0
 48
0.0
140
0.18
141
0.09
142
0.0
143
25.399999999999999
144
1.0
145
0.0
146
1.0
147
0.09
 71
     0
 72
     0
 73
     1
 74
     1
 75
     0
 76
     0
 77
     0
 78
     0
170
     0
171
     2
172
     0
173
     0
174
     0
175
     0
176
     0
177
     0
178
     0
  0
DIMSTYLE
  2
ANNOTATIF
 70
     0
  3

  4

  5

  6

  7

 40
0.0
 41
2.5
 42
0.625
 43
3.75
 44
1.25
 45
0.0
 46
0.0
 47
0.0
 48
0.0
140
2.5
141
2.5
142
0.0
143
0.03937007874016
144
1.0
145
0.0
146
1.0
147
0.625
 71
     0
 72
     0
 73
     0
 74
     0
 75
     0
 76
     0
 77
     1
 78
     8
170
     0
171
     3
172
     1
173
     0
174
     0
175
     0
176
     0
177
     0
178
     0
  0
DIMSTYLE
  2
ISO-25
 70
     0
  3

  4

  5

  6

  7

 40
1.0
 41
2.5
 42
0.625
 43
3.75
 44
1.25
 45
0.0
 46
0.0
 47
0.0
 48
0.0
140
2.5
141
2.5
142
0.0
143
0.03937007874016
144
1.0
145
0.0
146
1.0
147
0.625
 71
     0
 72
     0
 73
     0
 74
     0
 75
     0
 76
     0
 77
     1
 78
     8
170
     0
171
     3
172
     1
173
     0
174
     0
175
     0
176
     0
177
     0
178
     0
  0
ENDTAB
  0
ENDSEC
  0
SECTION
  2
BLOCKS
  0
BLOCK
  8
0
  2
$MODEL_SPACE
 70
     0
 10
0.0
 20
0.0
 30
0.0
  3
$MODEL_SPACE
  1

  0
ENDBLK
  5
21
  8
0
  0
BLOCK
 67
     1
  8
0
  2
$PAPER_SPACE
 70
     0
 10
0.0
 20
0.0
 30
0.0
  3
$PAPER_SPACE
  1

  0
ENDBLK
  5
D5
 67
     1
  8
0
  0
ENDSEC
  0
SECTION
  2
ENTITIES
  0
LINE
  5
209
  8
0
 10
1714.5399649282849
 20
1324.9054712399629
 30
0.0
 11
1714.3277049282849
 21
1337.343794239963
 31
0.0
  0
LINE
  5
20A
  8
0
  6
CENTERX2
 10
2206.2851359282849
 20
1337.343794239963
 30
0.0
 11
1714.3277049282849
 21
1337.343794239963
 31
0.0
  0
POLYLINE
  5
215
  8
0
 66
     1
 10
0.0
 20
0.0
 30
0.0
  0
VERTEX
  5
268
  8
0
 10
1714.5399649282849
 20
1324.9054712399629
 30
0.0
  0
VERTEX
  5
269
  8
0
 10
1714.599684299207
 20
1322.6518872191609
 30
0.0
  0
VERTEX
  5
26A
  8
0
 10
1714.6650814122629
 20
1320.3915421165191
 30
0.0
  0
VERTEX
  5
26B
  8
0
 10
1714.7367504553879
 20
1318.1249050435549
 30
0.0
  0
VERTEX
  5
26C
  8
0
 10
1714.815285616517
 20
1315.8524451117889
 30
0.0
  0
VERTEX
  5
26D
  8
0
 10
1714.901281083585
 20
1313.5746314327389
 30
0.0
  0
VERTEX
  5
26E
  8
0
 10
1714.995331044526
 20
1311.291933117923
 30
0.0
  0
VERTEX
  5
26F
  8
0
 10
1715.0980296872769
 20
1309.0048192788611
 30
0.0
  0
VERTEX
  5
270
  8
0
 10
1715.152807948059
 20
1307.8597531350881
 30
0.0
  0
VERTEX
  5
271
  8
0
 10
1715.2099711997689
 20
1306.713759027072
 30
0.0
  0
VERTEX
  5
272
  8
0
 10
1715.269593715899
 20
1305.566895593754
 30
0.0
  0
VERTEX
  5
273
  8
0
 10
1715.3317497699411
 20
1304.4192214740749
 30
0.0
  0
VERTEX
  5
274
  8
0
 10
1715.3965136353861
 20
1303.2707953069721
 30
0.0
  0
VERTEX
  5
275
  8
0
 10
1715.463959585725
 20
1302.121675731388
 30
0.0
  0
VERTEX
  5
276
  8
0
 10
1715.5341618944519
 20
1300.97192138626
 30
0.0
  0
VERTEX
  5
277
  8
0
 10
1715.607194835058
 20
1299.821590910529
 30
0.0
  0
VERTEX
  5
278
  8
0
 10
1715.6831326810341
 20
1298.670742943136
 30
0.0
  0
VERTEX
  5
279
  8
0
 10
1715.7620497058731
 20
1297.5194361230199
 30
0.0
  0
VERTEX
  5
27A
  8
0
 10
1715.844020183066
 20
1296.3677290891201
 30
0.0
  0
VERTEX
  5
27B
  8
0
 10
1715.929118386106
 20
1295.215680480376
 30
0.0
  0
VERTEX
  5
27C
  8
0
 10
1716.017418588483
 20
1294.0633489357299
 30
0.0
  0
VERTEX
  5
27D
  8
0
 10
1716.108995063692
 20
1292.9107930941191
 30
0.0
  0
VERTEX
  5
27E
  8
0
 10
1716.2039220852209
 20
1291.758071594485
 30
0.0
  0
VERTEX
  5
27F
  8
0
 10
1716.302273926565
 20
1290.605243075767
 30
0.0
  0
VERTEX
  5
280
  8
0
 10
1716.4041248612129
 20
1289.452366176904
 30
0.0
  0
VERTEX
  5
281
  8
0
 10
1716.5095491626601
 20
1288.2994995368381
 30
0.0
  0
VERTEX
  5
282
  8
0
 10
1716.618621104396
 20
1287.146701794507
 30
0.0
  0
VERTEX
  5
283
  8
0
 10
1716.7314149599131
 20
1285.9940315888509
 30
0.0
  0
VERTEX
  5
284
  8
0
 10
1716.8480050027031
 20
1284.841547558811
 30
0.0
  0
VERTEX
  5
285
  8
0
 10
1716.9684655062581
 20
1283.689308343326
 30
0.0
  0
VERTEX
  5
286
  8
0
 10
1717.0928707440689
 20
1282.5373725813361
 30
0.0
  0
VERTEX
  5
287
  8
0
 10
1717.2212949896291
 20
1281.3857989117801
 30
0.0
  0
VERTEX
  5
288
  8
0
 10
1717.35381251643
 20
1280.2346459736
 30
0.0
  0
VERTEX
  5
289
  8
0
 10
1717.490497597963
 20
1279.0839724057339
 30
0.0
  0
VERTEX
  5
28A
  8
0
 10
1717.6314245077201
 20
1277.9338368471231
 30
0.0
  0
VERTEX
  5
28B
  8
0
 10
1717.7766675191931
 20
1276.784297936706
 30
0.0
  0
VERTEX
  5
28C
  8
0
 10
1717.9263009058741
 20
1275.6354143134231
 30
0.0
  0
VERTEX
  5
28D
  8
0
 10
1718.080398941255
 20
1274.487244616214
 30
0.0
  0
VERTEX
  5
28E
  8
0
 10
1718.2390358988271
 20
1273.3398474840189
 30
0.0
  0
VERTEX
  5
28F
  8
0
 10
1718.402286052084
 20
1272.193281555778
 30
0.0
  0
VERTEX
  5
290
  8
0
 10
1718.5702236745151
 20
1271.04760547043
 30
0.0
  0
VERTEX
  5
291
  8
0
 10
1718.7429230396131
 20
1269.902877866916
 30
0.0
  0
VERTEX
  5
292
  8
0
 10
1718.920458420871
 20
1268.7591573841751
 30
0.0
  0
VERTEX
  5
293
  8
0
 10
1719.102904091779
 20
1267.616502661147
 30
0.0
  0
VERTEX
  5
294
  8
0
 10
1719.2903343258299
 20
1266.4749723367729
 30
0.0
  0
VERTEX
  5
295
  8
0
 10
1719.4828233965161
 20
1265.334625049991
 30
0.0
  0
VERTEX
  5
296
  8
0
 10
1719.680445577329
 20
1264.1955194397419
 30
0.0
  0
VERTEX
  5
297
  8
0
 10
1719.883275141759
 20
1263.0577141449651
 30
0.0
  0
VERTEX
  5
298
  8
0
 10
1720.0913863633
 20
1261.921267804601
 30
0.0
  0
VERTEX
  5
299
  8
0
 10
1720.304853515443
 20
1260.7862390575899
 30
0.0
  0
VERTEX
  5
29A
  8
0
 10
1720.52375087168
 20
1259.65268654287
 30
0.0
  0
VERTEX
  5
29B
  8
0
 10
1720.7481527055029
 20
1258.5206688993831
 30
0.0
  0
VERTEX
  5
29C
  8
0
 10
1720.9781332904031
 20
1257.3902447660671
 30
0.0
  0
VERTEX
  5
29D
  8
0
 10
1721.213766899873
 20
1256.2614727818629
 30
0.0
  0
VERTEX
  5
29E
  8
0
 10
1721.455127807405
 20
1255.134411585711
 30
0.0
  0
VERTEX
  5
29F
  8
0
 10
1721.702290286489
 20
1254.009119816551
 30
0.0
  0
VERTEX
  5
2A0
  8
0
 10
1721.9553286106191
 20
1252.8856561133209
 30
0.0
  0
VERTEX
  5
2A1
  8
0
 10
1722.214317053285
 20
1251.7640791149629
 30
0.0
  0
VERTEX
  5
2A2
  8
0
 10
1722.4793298879799
 20
1250.6444474604159
 30
0.0
  0
VERTEX
  5
2A3
  8
0
 10
1722.7504413881959
 20
1249.5268197886189
 30
0.0
  0
VERTEX
  5
2A4
  8
0
 10
1723.027725827425
 20
1248.4112547385139
 30
0.0
  0
VERTEX
  5
2A5
  8
0
 10
1723.311257479158
 20
1247.2978109490391
 30
0.0
  0
VERTEX
  5
2A6
  8
0
 10
1723.6011106168869
 20
1246.186547059134
 30
0.0
  0
VERTEX
  5
2A7
  8
0
 10
1723.897359514104
 20
1245.0775217077401
 30
0.0
  0
VERTEX
  5
2A8
  8
0
 10
1724.2000784443021
 20
1243.970793533796
 30
0.0
  0
VERTEX
  5
2A9
  8
0
 10
1724.50934168097
 20
1242.8664211762421
 30
0.0
  0
VERTEX
  5
2AA
  8
0
 10
1724.825223497603
 20
1241.764463274018
 30
0.0
  0
VERTEX
  5
2AB
  8
0
 10
1725.147798167691
 20
1240.664978466064
 30
0.0
  0
VERTEX
  5
2AC
  8
0
 10
1725.477139964727
 20
1239.568025391319
 30
0.0
  0
VERTEX
  5
2AD
  8
0
 10
1725.8133231622021
 20
1238.4736626887241
 30
0.0
  0
VERTEX
  5
2AE
  8
0
 10
1726.1564220336079
 20
1237.3819489972179
 30
0.0
  0
VERTEX
  5
2AF
  8
0
 10
1726.506510852437
 20
1236.292942955741
 30
0.0
  0
VERTEX
  5
2B0
  8
0
 10
1726.863663892181
 20
1235.2067032032339
 30
0.0
  0
VERTEX
  5
2B1
  8
0
 10
1727.2279554263321
 20
1234.1232883786349
 30
0.0
  0
VERTEX
  5
2B2
  8
0
 10
1727.5994597283809
 20
1233.042757120885
 30
0.0
  0
VERTEX
  5
2B3
  8
0
 10
1727.9782510718201
 20
1231.965168068923
 30
0.0
  0
VERTEX
  5
2B4
  8
0
 10
1728.3644037301419
 20
1230.89057986169
 30
0.0
  0
VERTEX
  5
2B5
  8
0
 10
1728.7579919768391
 20
1229.819051138126
 30
0.0
  0
VERTEX
  5
2B6
  8
0
 10
1729.1590900854001
 20
1228.7506405371689
 30
0.0
  0
VERTEX
  5
2B7
  8
0
 10
1729.56777232932
 20
1227.685406697761
 30
0.0
  0
VERTEX
  5
2B8
  8
0
 10
1729.98411298209
 20
1226.6234082588401
 30
0.0
  0
VERTEX
  5
2B9
  8
0
 10
1730.4081863172009
 20
1225.5647038593479
 30
0.0
  0
VERTEX
  5
2BA
  8
0
 10
1730.8400666081459
 20
1224.509352138223
 30
0.0
  0
VERTEX
  5
2BB
  8
0
 10
1731.2798281284149
 20
1223.457411734405
 30
0.0
  0
VERTEX
  5
2BC
  8
0
 10
1731.7275451515029
 20
1222.408941286835
 30
0.0
  0
VERTEX
  5
2BD
  8
0
 10
1732.1832919508979
 20
1221.3639994344519
 30
0.0
  0
VERTEX
  5
2BE
  8
0
 10
1732.647142800095
 20
1220.322644816195
 30
0.0
  0
VERTEX
  5
2BF
  8
0
 10
1733.119171972585
 20
1219.2849360710061
 30
0.0
  0
VERTEX
  5
2C0
  8
0
 10
1733.599453741859
 20
1218.2509318378241
 30
0.0
  0
VERTEX
  5
2C1
  8
0
 10
1734.0880623814101
 20
1217.2206907555881
 30
0.0
  0
VERTEX
  5
2C2
  8
0
 10
1734.5850721647289
 20
1216.1942714632389
 30
0.0
  0
VERTEX
  5
2C3
  8
0
 10
1735.0905573653081
 20
1215.1717325997161
 30
0.0
  0
VERTEX
  5
2C4
  8
0
 10
1735.6045922566391
 20
1214.1531328039589
 30
0.0
  0
VERTEX
  5
2C5
  8
0
 10
1736.127251112214
 20
1213.138530714908
 30
0.0
  0
VERTEX
  5
2C6
  8
0
 10
1736.658608205526
 20
1212.1279849715031
 30
0.0
  0
VERTEX
  5
2C7
  8
0
 10
1737.1987378100639
 20
1211.121554212684
 30
0.0
  0
VERTEX
  5
2C8
  8
0
 10
1737.747714199322
 20
1210.1192970773909
 30
0.0
  0
VERTEX
  5
2C9
  8
0
 10
1738.305611646791
 20
1209.121272204563
 30
0.0
  0
VERTEX
  5
2CA
  8
0
 10
1738.8725044259629
 20
1208.1275382331401
 30
0.0
  0
VERTEX
  5
2CB
  8
0
 10
1739.1593472754039
 20
1207.632298660124
 30
0.0
  0
VERTEX
  5
2CC
  8
0
 10
1739.448466810331
 20
1207.138153802063
 30
0.0
  0
VERTEX
  5
2CD
  8
0
 10
1739.739872314929
 20
1206.6451109888219
 30
0.0
  0
VERTEX
  5
2CE
  8
0
 10
1740.033573073385
 20
1206.1531775502699
 30
0.0
  0
VERTEX
  5
2CF
  8
0
 10
1740.3295783698859
 20
1205.6623608162749
 30
0.0
  0
VERTEX
  5
2D0
  8
0
 10
1740.6278974886179
 20
1205.172668116702
 30
0.0
  0
VERTEX
  5
2D1
  8
0
 10
1740.928539713768
 20
1204.6841067814221
 30
0.0
  0
VERTEX
  5
2D2
  8
0
 10
1741.231514329522
 20
1204.1966841403
 30
0.0
  0
VERTEX
  5
2D3
  8
0
 10
1741.536830620066
 20
1203.7104075232039
 30
0.0
  0
VERTEX
  5
2D4
  8
0
 10
1741.8444978695879
 20
1203.2252842600019
 30
0.0
  0
VERTEX
  5
2D5
  8
0
 10
1742.1545253622739
 20
1202.741321680561
 30
0.0
  0
VERTEX
  5
2D6
  8
0
 10
1742.4669223823089
 20
1202.2585271147479
 30
0.0
  0
VERTEX
  5
2D7
  8
0
 10
1742.7816982138811
 20
1201.7769078924321
 30
0.0
  0
VERTEX
  5
2D8
  8
0
 10
1743.0988621411759
 20
1201.296471343479
 30
0.0
  0
VERTEX
  5
2D9
  8
0
 10
1743.4184234483801
 20
1200.817224797757
 30
0.0
  0
VERTEX
  5
2DA
  8
0
 10
1743.74039141968
 20
1200.3391755851339
 30
0.0
  0
VERTEX
  5
2DB
  8
0
 10
1744.064775339263
 20
1199.862331035476
 30
0.0
  0
VERTEX
  5
2DC
  8
0
 10
1744.3915844913149
 20
1199.386698478653
 30
0.0
  0
VERTEX
  5
2DD
  8
0
 10
1744.7208281600219
 20
1198.91228524453
 30
0.0
  0
VERTEX
  5
2DE
  8
0
 10
1745.0525156295721
 20
1198.4390986629751
 30
0.0
  0
VERTEX
  5
2DF
  8
0
 10
1745.3866561841501
 20
1197.9671460638569
 30
0.0
  0
VERTEX
  5
2E0
  8
0
 10
1745.7232591079421
 20
1197.4964347770419
 30
0.0
  0
VERTEX
  5
2E1
  8
0
 10
1746.0623336851361
 20
1197.026972132398
 30
0.0
  0
VERTEX
  5
2E2
  8
0
 10
1746.403889199918
 20
1196.5587654597921
 30
0.0
  0
VERTEX
  5
2E3
  8
0
 10
1746.7479349364739
 20
1196.0918220890919
 30
0.0
  0
VERTEX
  5
2E4
  8
0
 10
1747.094480178991
 20
1195.6261493501661
 30
0.0
  0
VERTEX
  5
2E5
  8
0
 10
1747.4435342116551
 20
1195.16175457288
 30
0.0
  0
VERTEX
  5
2E6
  8
0
 10
1747.7951063186531
 20
1194.6986450871029
 30
0.0
  0
VERTEX
  5
2E7
  8
0
 10
1748.149205784171
 20
1194.2368282227019
 30
0.0
  0
VERTEX
  5
2E8
  8
0
 10
1748.5058418923959
 20
1193.776311309543
 30
0.0
  0
VERTEX
  5
2E9
  8
0
 10
1748.865023927515
 20
1193.3171016774961
 30
0.0
  0
VERTEX
  5
2EA
  8
0
 10
1749.226761173712
 20
1192.8592066564261
 30
0.0
  0
VERTEX
  5
2EB
  8
0
 10
1749.591062915177
 20
1192.402633576203
 30
0.0
  0
VERTEX
  5
2EC
  8
0
 10
1749.9579384360941
 20
1191.947389766693
 30
0.0
  0
VERTEX
  5
2ED
  8
0
 10
1750.3273970206501
 20
1191.4934825577629
 30
0.0
  0
VERTEX
  5
2EE
  8
0
 10
1750.6994479530319
 20
1191.040919279282
 30
0.0
  0
VERTEX
  5
2EF
  8
0
 10
1751.074100517425
 20
1190.589707261116
 30
0.0
  0
VERTEX
  5
2F0
  8
0
 10
1751.4513639980171
 20
1190.139853833133
 30
0.0
  0
VERTEX
  5
2F1
  8
0
 10
1751.8312476789949
 20
1189.691366325201
 30
0.0
  0
VERTEX
  5
2F2
  8
0
 10
1752.2137608445439
 20
1189.2442520671871
 30
0.0
  0
VERTEX
  5
2F3
  8
0
 10
1752.5989127788509
 20
1188.7985183889591
 30
0.0
  0
VERTEX
  5
2F4
  8
0
 10
1752.986712766103
 20
1188.3541726203839
 30
0.0
  0
VERTEX
  5
2F5
  8
0
 10
1753.3771700904861
 20
1187.9112220913289
 30
0.0
  0
VERTEX
  5
2F6
  8
0
 10
1753.770294036186
 20
1187.4696741316629
 30
0.0
  0
VERTEX
  5
2F7
  8
0
 10
1754.1660938873899
 20
1187.029536071251
 30
0.0
  0
VERTEX
  5
2F8
  8
0
 10
1754.5645789282851
 20
1186.5908152399629
 30
0.0
  0
SEQEND
  5
2F9
  8
0
  0
POLYLINE
  5
216
  8
0
 66
     1
 10
0.0
 20
0.0
 30
0.0
  0
VERTEX
  5
2FA
  8
0
 10
1754.5645789282851
 20
1186.5908152399629
 30
0.0
  0
VERTEX
  5
2FB
  8
0
 10
1755.0200552812109
 20
1186.117436288072
 30
0.0
  0
VERTEX
  5
2FC
  8
0
 10
1755.477834078047
 20
1185.647081391008
 30
0.0
  0
VERTEX
  5
2FD
  8
0
 10
1755.937901929786
 20
1185.1797473929339
 30
0.0
  0
VERTEX
  5
2FE
  8
0
 10
1756.400245447423
 20
1184.715431138015
 30
0.0
  0
VERTEX
  5
2FF
  8
0
 10
1756.8648512419511
 20
1184.254129470416
 30
0.0
  0
VERTEX
  5
300
  8
0
 10
1757.331705924365
 20
1183.7958392342989
 30
0.0
  0
VERTEX
  5
301
  8
0
 10
1757.8007961056569
 20
1183.3405572738291
 30
0.0
  0
VERTEX
  5
302
  8
0
 10
1758.272108396822
 20
1182.8882804331699
 30
0.0
  0
VERTEX
  5
303
  8
0
 10
1758.745629408852
 20
1182.4390055564861
 30
0.0
  0
VERTEX
  5
304
  8
0
 10
1759.221345752743
 20
1181.992729487941
 30
0.0
  0
VERTEX
  5
305
  8
0
 10
1759.699244039487
 20
1181.549449071699
 30
0.0
  0
VERTEX
  5
306
  8
0
 10
1760.1793108800789
 20
1181.1091611519239
 30
0.0
  0
VERTEX
  5
307
  8
0
 10
1760.661532885511
 20
1180.6718625727799
 30
0.0
  0
VERTEX
  5
308
  8
0
 10
1761.145896666779
 20
1180.2375501784311
 30
0.0
  0
VERTEX
  5
309
  8
0
 10
1761.6323888348761
 20
1179.8062208130409
 30
0.0
  0
VERTEX
  5
30A
  8
0
 10
1762.120996000795
 20
1179.3778713207739
 30
0.0
  0
VERTEX
  5
30B
  8
0
 10
1762.6117047755299
 20
1178.952498545794
 30
0.0
  0
VERTEX
  5
30C
  8
0
 10
1763.1045017700751
 20
1178.5300993322651
 30
0.0
  0
VERTEX
  5
30D
  8
0
 10
1763.599373595423
 20
1178.110670524351
 30
0.0
  0
VERTEX
  5
30E
  8
0
 10
1764.096306862569
 20
1177.694208966217
 30
0.0
  0
VERTEX
  5
30F
  8
0
 10
1764.595288182506
 20
1177.280711502025
 30
0.0
  0
VERTEX
  5
310
  8
0
 10
1765.096304166228
 20
1176.8701749759409
 30
0.0
  0
VERTEX
  5
311
  8
0
 10
1765.5993414247289
 20
1176.4625962321279
 30
0.0
  0
VERTEX
  5
312
  8
0
 10
1766.1043865690019
 20
1176.057972114749
 30
0.0
  0
VERTEX
  5
313
  8
0
 10
1766.61142621004
 20
1175.6562994679709
 30
0.0
  0
VERTEX
  5
314
  8
0
 10
1767.120446958839
 20
1175.257575135955
 30
0.0
  0
VERTEX
  5
315
  8
0
 10
1767.631435426392
 20
1174.8617959628659
 30
0.0
  0
VERTEX
  5
316
  8
0
 10
1768.1443782236911
 20
1174.468958792869
 30
0.0
  0
VERTEX
  5
317
  8
0
 10
1768.659261961732
 20
1174.0790604701269
 30
0.0
  0
VERTEX
  5
318
  8
0
 10
1769.1760732515079
 20
1173.6920978388041
 30
0.0
  0
VERTEX
  5
319
  8
0
 10
1769.6947987040121
 20
1173.3080677430651
 30
0.0
  0
VERTEX
  5
31A
  8
0
 10
1770.215424930238
 20
1172.9269670270719
 30
0.0
  0
VERTEX
  5
31B
  8
0
 10
1770.7379385411809
 20
1172.5487925349919
 30
0.0
  0
VERTEX
  5
31C
  8
0
 10
1771.2623261478329
 20
1172.173541110986
 30
0.0
  0
VERTEX
  5
31D
  8
0
 10
1771.788574361188
 20
1171.8012095992201
 30
0.0
  0
VERTEX
  5
31E
  8
0
 10
1772.3166697922411
 20
1171.4317948438561
 30
0.0
  0
VERTEX
  5
31F
  8
0
 10
1772.8465990519851
 20
1171.065293689061
 30
0.0
  0
VERTEX
  5
320
  8
0
 10
1773.378348751414
 20
1170.7017029789961
 30
0.0
  0
VERTEX
  5
321
  8
0
 10
1773.911905501521
 20
1170.3410195578269
 30
0.0
  0
VERTEX
  5
322
  8
0
 10
1774.447255913301
 20
1169.983240269718
 30
0.0
  0
VERTEX
  5
323
  8
0
 10
1774.9843865977459
 20
1169.6283619588321
 30
0.0
  0
VERTEX
  5
324
  8
0
 10
1775.523284165851
 20
1169.276381469333
 30
0.0
  0
VERTEX
  5
325
  8
0
 10
1776.06393522861
 20
1168.9272956453849
 30
0.0
  0
VERTEX
  5
326
  8
0
 10
1776.6063263970159
 20
1168.5811013311529
 30
0.0
  0
VERTEX
  5
327
  8
0
 10
1777.1504442820631
 20
1168.237795370801
 30
0.0
  0
VERTEX
  5
328
  8
0
 10
1777.696275494744
 20
1167.8973746084921
 30
0.0
  0
VERTEX
  5
329
  8
0
 10
1778.2438066460541
 20
1167.5598358883899
 30
0.0
  0
VERTEX
  5
32A
  8
0
 10
1778.7930243469859
 20
1167.2251760546601
 30
0.0
  0
VERTEX
  5
32B
  8
0
 10
1779.3439152085341
 20
1166.8933919514659
 30
0.0
  0
VERTEX
  5
32C
  8
0
 10
1779.8964658416919
 20
1166.564480422971
 30
0.0
  0
VERTEX
  5
32D
  8
0
 10
1780.4506628574529
 20
1166.238438313339
 30
0.0
  0
VERTEX
  5
32E
  8
0
 10
1781.006492866811
 20
1165.9152624667349
 30
0.0
  0
VERTEX
  5
32F
  8
0
 10
1781.56394248076
 20
1165.594949727323
 30
0.0
  0
VERTEX
  5
330
  8
0
 10
1782.122998310294
 20
1165.277496939266
 30
0.0
  0
VERTEX
  5
331
  8
0
 10
1782.6836469664061
 20
1164.962900946729
 30
0.0
  0
VERTEX
  5
332
  8
0
 10
1783.2458750600899
 20
1164.6511585938749
 30
0.0
  0
VERTEX
  5
333
  8
0
 10
1783.80966920234
 20
1164.342266724869
 30
0.0
  0
VERTEX
  5
334
  8
0
 10
1784.37501600415
 20
1164.036222183875
 30
0.0
  0
VERTEX
  5
335
  8
0
 10
1784.9419020765131
 20
1163.7330218150571
 30
0.0
  0
VERTEX
  5
336
  8
0
 10
1785.5103140304241
 20
1163.4326624625769
 30
0.0
  0
VERTEX
  5
337
  8
0
 10
1786.080238476874
 20
1163.1351409706019
 30
0.0
  0
VERTEX
  5
338
  8
0
 10
1786.6516620268601
 20
1162.840454183294
 30
0.0
  0
VERTEX
  5
339
  8
0
 10
1787.2245712913741
 20
1162.548598944818
 30
0.0
  0
VERTEX
  5
33A
  8
0
 10
1787.7989528814101
 20
1162.2595720993379
 30
0.0
  0
VERTEX
  5
33B
  8
0
 10
1788.374793407962
 20
1161.9733704910179
 30
0.0
  0
VERTEX
  5
33C
  8
0
 10
1788.952079482023
 20
1161.689990964021
 30
0.0
  0
VERTEX
  5
33D
  8
0
 10
1789.5307977145881
 20
1161.409430362512
 30
0.0
  0
VERTEX
  5
33E
  8
0
 10
1790.1109347166489
 20
1161.131685530655
 30
0.0
  0
VERTEX
  5
33F
  8
0
 10
1790.6924770992021
 20
1160.8567533126129
 30
0.0
  0
VERTEX
  5
340
  8
0
 10
1791.275411473239
 20
1160.5846305525511
 30
0.0
  0
VERTEX
  5
341
  8
0
 10
1791.8597244497539
 20
1160.315314094634
 30
0.0
  0
VERTEX
  5
342
  8
0
 10
1792.4454026397409
 20
1160.0488007830229
 30
0.0
  0
VERTEX
  5
343
  8
0
 10
1793.0324326541941
 20
1159.785087461885
 30
0.0
  0
VERTEX
  5
344
  8
0
 10
1793.6208011041069
 20
1159.524170975383
 30
0.0
  0
VERTEX
  5
345
  8
0
 10
1794.210494600472
 20
1159.2660481676801
 30
0.0
  0
VERTEX
  5
346
  8
0
 10
1794.801499754285
 20
1159.0107158829419
 30
0.0
  0
VERTEX
  5
347
  8
0
 10
1795.393803176539
 20
1158.7581709653309
 30
0.0
  0
VERTEX
  5
348
  8
0
 10
1795.9873914782261
 20
1158.508410259012
 30
0.0
  0
VERTEX
  5
349
  8
0
 10
1796.582251270343
 20
1158.2614306081491
 30
0.0
  0
VERTEX
  5
34A
  8
0
 10
1797.1783691638809
 20
1158.017228856907
 30
0.0
  0
VERTEX
  5
34B
  8
0
 10
1797.775731769834
 20
1157.7758018494469
 30
0.0
  0
VERTEX
  5
34C
  8
0
 10
1798.3743256991979
 20
1157.5371464299369
 30
0.0
  0
VERTEX
  5
34D
  8
0
 10
1798.974137562964
 20
1157.3012594425379
 30
0.0
  0
VERTEX
  5
34E
  8
0
 10
1799.5751539721271
 20
1157.068137731414
 30
0.0
  0
VERTEX
  5
34F
  8
0
 10
1800.177361537681
 20
1156.837778140731
 30
0.0
  0
VERTEX
  5
350
  8
0
 10
1800.7807468706201
 20
1156.6101775146519
 30
0.0
  0
VERTEX
  5
351
  8
0
 10
1801.385296581936
 20
1156.385332697341
 30
0.0
  0
VERTEX
  5
352
  8
0
 10
1801.9909972826249
 20
1156.1632405329619
 30
0.0
  0
VERTEX
  5
353
  8
0
 10
1802.5978355836789
 20
1155.943897865679
 30
0.0
  0
VERTEX
  5
354
  8
0
 10
1803.2057980960919
 20
1155.7273015396561
 30
0.0
  0
VERTEX
  5
355
  8
0
 10
1803.8148714308591
 20
1155.513448399058
 30
0.0
  0
VERTEX
  5
356
  8
0
 10
1804.4250421989721
 20
1155.3023352880471
 30
0.0
  0
VERTEX
  5
357
  8
0
 10
1805.0362970114261
 20
1155.093959050789
 30
0.0
  0
VERTEX
  5
358
  8
0
 10
1805.6486224792141
 20
1154.888316531446
 30
0.0
  0
VERTEX
  5
359
  8
0
 10
1806.2620052133309
 20
1154.6854045741841
 30
0.0
  0
VERTEX
  5
35A
  8
0
 10
1806.876431824769
 20
1154.485220023166
 30
0.0
  0
VERTEX
  5
35B
  8
0
 10
1807.491888924523
 20
1154.2877597225561
 30
0.0
  0
VERTEX
  5
35C
  8
0
 10
1808.108363123587
 20
1154.0930205165189
 30
0.0
  0
VERTEX
  5
35D
  8
0
 10
1808.725841032953
 20
1153.900999249217
 30
0.0
  0
VERTEX
  5
35E
  8
0
 10
1809.344309263616
 20
1153.711692764816
 30
0.0
  0
VERTEX
  5
35F
  8
0
 10
1809.9637544265699
 20
1153.525097907479
 30
0.0
  0
VERTEX
  5
360
  8
0
 10
1810.5841631328069
 20
1153.34121152137
 30
0.0
  0
VERTEX
  5
361
  8
0
 10
1811.2055219933229
 20
1153.160030450653
 30
0.0
  0
VERTEX
  5
362
  8
0
 10
1811.8278176191111
 20
1152.981551539493
 30
0.0
  0
VERTEX
  5
363
  8
0
 10
1812.451036621165
 20
1152.8057716320529
 30
0.0
  0
VERTEX
  5
364
  8
0
 10
1813.0751656104769
 20
1152.6326875724969
 30
0.0
  0
VERTEX
  5
365
  8
0
 10
1813.7001911980431
 20
1152.46229620499
 30
0.0
  0
VERTEX
  5
366
  8
0
 10
1814.326099994855
 20
1152.294594373695
 30
0.0
  0
VERTEX
  5
367
  8
0
 10
1814.9528786119081
 20
1152.1295789227761
 30
0.0
  0
VERTEX
  5
368
  8
0
 10
1815.580513660195
 20
1151.967246696398
 30
0.0
  0
VERTEX
  5
369
  8
0
 10
1816.2089917507101
 20
1151.8075945387241
 30
0.0
  0
VERTEX
  5
36A
  8
0
 10
1816.838299494447
 20
1151.650619293918
 30
0.0
  0
VERTEX
  5
36B
  8
0
 10
1817.468423502399
 20
1151.496317806145
 30
0.0
  0
VERTEX
  5
36C
  8
0
 10
1818.0993503855609
 20
1151.3446869195679
 30
0.0
  0
VERTEX
  5
36D
  8
0
 10
1818.731066754925
 20
1151.195723478352
 30
0.0
  0
VERTEX
  5
36E
  8
0
 10
1819.363559221486
 20
1151.0494243266601
 30
0.0
  0
VERTEX
  5
36F
  8
0
 10
1819.9968143962381
 20
1150.9057863086559
 30
0.0
  0
VERTEX
  5
370
  8
0
 10
1820.6308188901739
 20
1150.764806268505
 30
0.0
  0
VERTEX
  5
371
  8
0
 10
1821.265559314287
 20
1150.626481050371
 30
0.0
  0
VERTEX
  5
372
  8
0
 10
1821.901022279573
 20
1150.4908074984171
 30
0.0
  0
VERTEX
  5
373
  8
0
 10
1822.537194397024
 20
1150.3577824568069
 30
0.0
  0
VERTEX
  5
374
  8
0
 10
1823.1740622776331
 20
1150.227402769706
 30
0.0
  0
VERTEX
  5
375
  8
0
 10
1823.8116125323961
 20
1150.0996652812771
 30
0.0
  0
VERTEX
  5
376
  8
0
 10
1824.449831772306
 20
1149.974566835685
 30
0.0
  0
VERTEX
  5
377
  8
0
 10
1825.088706608356
 20
1149.852104277094
 30
0.0
  0
VERTEX
  5
378
  8
0
 10
1825.7282236515391
 20
1149.7322744496671
 30
0.0
  0
VERTEX
  5
379
  8
0
 10
1826.368369512852
 20
1149.6150741975689
 30
0.0
  0
VERTEX
  5
37A
  8
0
 10
1827.009130803285
 20
1149.500500364963
 30
0.0
  0
VERTEX
  5
37B
  8
0
 10
1827.6504941338339
 20
1149.3885497960141
 30
0.0
  0
VERTEX
  5
37C
  8
0
 10
1828.2924461154921
 20
1149.279219334886
 30
0.0
  0
VERTEX
  5
37D
  8
0
 10
1828.934973359253
 20
1149.1725058257421
 30
0.0
  0
VERTEX
  5
37E
  8
0
 10
1829.5780624761101
 20
1149.068406112747
 30
0.0
  0
VERTEX
  5
37F
  8
0
 10
1830.2217000770579
 20
1148.9669170400639
 30
0.0
  0
VERTEX
  5
380
  8
0
 10
1830.865872773089
 20
1148.868035451859
 30
0.0
  0
VERTEX
  5
381
  8
0
 10
1831.510567175199
 20
1148.771758192293
 30
0.0
  0
VERTEX
  5
382
  8
0
 10
1832.15576989438
 20
1148.6780821055329
 30
0.0
  0
VERTEX
  5
383
  8
0
 10
1832.8014675416259
 20
1148.5870040357411
 30
0.0
  0
VERTEX
  5
384
  8
0
 10
1833.4476467279319
 20
1148.498520827083
 30
0.0
  0
VERTEX
  5
385
  8
0
 10
1834.0942940642899
 20
1148.41262932372
 30
0.0
  0
VERTEX
  5
386
  8
0
 10
1834.741396161694
 20
1148.329326369819
 30
0.0
  0
VERTEX
  5
387
  8
0
 10
1835.3889396311399
 20
1148.248608809542
 30
0.0
  0
VERTEX
  5
388
  8
0
 10
1836.0369110836191
 20
1148.170473487055
 30
0.0
  0
VERTEX
  5
389
  8
0
 10
1836.6852971301259
 20
1148.09491724652
 30
0.0
  0
VERTEX
  5
38A
  8
0
 10
1837.3340843816541
 20
1148.0219369321021
 30
0.0
  0
VERTEX
  5
38B
  8
0
 10
1837.983259449197
 20
1147.951529387964
 30
0.0
  0
VERTEX
  5
38C
  8
0
 10
1838.63280894375
 20
1147.8836914582721
 30
0.0
  0
VERTEX
  5
38D
  8
0
 10
1839.2827194763061
 20
1147.818419987188
 30
0.0
  0
VERTEX
  5
38E
  8
0
 10
1839.932977657857
 20
1147.7557118188779
 30
0.0
  0
VERTEX
  5
38F
  8
0
 10
1840.5835700993989
 20
1147.6955637975041
 30
0.0
  0
VERTEX
  5
390
  8
0
 10
1841.2344834119251
 20
1147.6379727672311
 30
0.0
  0
VERTEX
  5
391
  8
0
 10
1841.885704206429
 20
1147.5829355722231
 30
0.0
  0
VERTEX
  5
392
  8
0
 10
1842.537219093904
 20
1147.5304490566441
 30
0.0
  0
VERTEX
  5
393
  8
0
 10
1843.1890146853441
 20
1147.4805100646579
 30
0.0
  0
VERTEX
  5
394
  8
0
 10
1843.841077591743
 20
1147.433115440429
 30
0.0
  0
VERTEX
  5
395
  8
0
 10
1844.493394424095
 20
1147.3882620281211
 30
0.0
  0
VERTEX
  5
396
  8
0
 10
1845.145951793394
 20
1147.3459466718971
 30
0.0
  0
VERTEX
  5
397
  8
0
 10
1845.798736310632
 20
1147.306166215923
 30
0.0
  0
VERTEX
  5
398
  8
0
 10
1846.4517345868039
 20
1147.268917504362
 30
0.0
  0
VERTEX
  5
399
  8
0
 10
1847.1049332329039
 20
1147.234197381378
 30
0.0
  0
VERTEX
  5
39A
  8
0
 10
1847.7583188599251
 20
1147.202002691135
 30
0.0
  0
VERTEX
  5
39B
  8
0
 10
1848.4118780788619
 20
1147.1723302777971
 30
0.0
  0
VERTEX
  5
39C
  8
0
 10
1849.0655975007071
 20
1147.145176985528
 30
0.0
  0
VERTEX
  5
39D
  8
0
 10
1849.7194637364551
 20
1147.1205396584919
 30
0.0
  0
VERTEX
  5
39E
  8
0
 10
1850.3734633971001
 20
1147.0984151408529
 30
0.0
  0
VERTEX
  5
39F
  8
0
 10
1851.0275830936339
 20
1147.0788002767761
 30
0.0
  0
VERTEX
  5
3A0
  8
0
 10
1851.6818094370531
 20
1147.061691910423
 30
0.0
  0
VERTEX
  5
3A1
  8
0
 10
1852.3361290383491
 20
1147.04708688596
 30
0.0
  0
VERTEX
  5
3A2
  8
0
 10
1852.990528508516
 20
1147.0349820475501
 30
0.0
  0
VERTEX
  5
3A3
  8
0
 10
1853.6449944585479
 20
1147.025374239357
 30
0.0
  0
VERTEX
  5
3A4
  8
0
 10
1854.2995134994389
 20
1147.018260305545
 30
0.0
  0
VERTEX
  5
3A5
  8
0
 10
1854.954072242183
 20
1147.0136370902781
 30
0.0
  0
VERTEX
  5
3A6
  8
0
 10
1855.6086572977731
 20
1147.0115014377211
 30
0.0
  0
VERTEX
  5
3A7
  8
0
 10
1856.2632552772029
 20
1147.011850192036
 30
0.0
  0
VERTEX
  5
3A8
  8
0
 10
1856.917852791466
 20
1147.014680197389
 30
0.0
  0
VERTEX
  5
3A9
  8
0
 10
1857.5724364515579
 20
1147.0199882979441
 30
0.0
  0
VERTEX
  5
3AA
  8
0
 10
1858.22699286847
 20
1147.0277713378639
 30
0.0
  0
VERTEX
  5
3AB
  8
0
 10
1858.8815086531979
 20
1147.038026161312
 30
0.0
  0
VERTEX
  5
3AC
  8
0
 10
1859.535970416734
 20
1147.050749612454
 30
0.0
  0
VERTEX
  5
3AD
  8
0
 10
1860.1903647700731
 20
1147.0659385354541
 30
0.0
  0
VERTEX
  5
3AE
  8
0
 10
1860.8446783242091
 20
1147.0835897744751
 30
0.0
  0
VERTEX
  5
3AF
  8
0
 10
1861.4988976901341
 20
1147.1037001736811
 30
0.0
  0
VERTEX
  5
3B0
  8
0
 10
1862.153009478842
 20
1147.126266577236
 30
0.0
  0
VERTEX
  5
3B1
  8
0
 10
1862.807000301329
 20
1147.1512858293049
 30
0.0
  0
VERTEX
  5
3B2
  8
0
 10
1863.4608567685859
 20
1147.178754774051
 30
0.0
  0
VERTEX
  5
3B3
  8
0
 10
1864.114565491609
 20
1147.2086702556389
 30
0.0
  0
VERTEX
  5
3B4
  8
0
 10
1864.7681130813901
 20
1147.2410291182321
 30
0.0
  0
VERTEX
  5
3B5
  8
0
 10
1865.421486148924
 20
1147.275828205994
 30
0.0
  0
VERTEX
  5
3B6
  8
0
 10
1866.074671305204
 20
1147.31306436309
 30
0.0
  0
VERTEX
  5
3B7
  8
0
 10
1866.7276551612231
 20
1147.3527344336831
 30
0.0
  0
VERTEX
  5
3B8
  8
0
 10
1867.3804243279769
 20
1147.3948352619379
 30
0.0
  0
VERTEX
  5
3B9
  8
0
 10
1868.032965416458
 20
1147.4393636920181
 30
0.0
  0
VERTEX
  5
3BA
  8
0
 10
1868.68526503766
 20
1147.4863165680879
 30
0.0
  0
VERTEX
  5
3BB
  8
0
 10
1869.337309802577
 20
1147.5356907343109
 30
0.0
  0
VERTEX
  5
3BC
  8
0
 10
1869.9890863222031
 20
1147.5874830348521
 30
0.0
  0
VERTEX
  5
3BD
  8
0
 10
1870.6405812075311
 20
1147.6416903138741
 30
0.0
  0
VERTEX
  5
3BE
  8
0
 10
1871.2917810695551
 20
1147.6983094155421
 30
0.0
  0
VERTEX
  5
3BF
  8
0
 10
1871.9426725192691
 20
1147.757337184019
 30
0.0
  0
VERTEX
  5
3C0
  8
0
 10
1872.5932421676659
 20
1147.8187704634699
 30
0.0
  0
VERTEX
  5
3C1
  8
0
 10
1873.2434766257411
 20
1147.8826060980589
 30
0.0
  0
VERTEX
  5
3C2
  8
0
 10
1873.893362504487
 20
1147.948840931949
 30
0.0
  0
VERTEX
  5
3C3
  8
0
 10
1874.542886414898
 20
1148.0174718093051
 30
0.0
  0
VERTEX
  5
3C4
  8
0
 10
1875.1920349679681
 20
1148.0884955742899
 30
0.0
  0
VERTEX
  5
3C5
  8
0
 10
1875.84079477469
 20
1148.161909071069
 30
0.0
  0
VERTEX
  5
3C6
  8
0
 10
1876.4891524460579
 20
1148.2377091438059
 30
0.0
  0
VERTEX
  5
3C7
  8
0
 10
1877.1370945930651
 20
1148.3158926366641
 30
0.0
  0
VERTEX
  5
3C8
  8
0
 10
1877.7846078267071
 20
1148.396456393808
 30
0.0
  0
VERTEX
  5
3C9
  8
0
 10
1878.4316787579751
 20
1148.479397259402
 30
0.0
  0
VERTEX
  5
3CA
  8
0
 10
1879.0782939978651
 20
1148.5647120776091
 30
0.0
  0
VERTEX
  5
3CB
  8
0
 10
1879.7244401573689
 20
1148.6523976925951
 30
0.0
  0
VERTEX
  5
3CC
  8
0
 10
1880.3701038474819
 20
1148.742450948522
 30
0.0
  0
VERTEX
  5
3CD
  8
0
 10
1881.0152716791979
 20
1148.834868689554
 30
0.0
  0
VERTEX
  5
3CE
  8
0
 10
1881.6599302635091
 20
1148.9296477598571
 30
0.0
  0
VERTEX
  5
3CF
  8
0
 10
1882.3040662114099
 20
1149.026785003593
 30
0.0
  0
VERTEX
  5
3D0
  8
0
 10
1882.9476661338949
 20
1149.126277264927
 30
0.0
  0
VERTEX
  5
3D1
  8
0
 10
1883.590716641957
 20
1149.2281213880231
 30
0.0
  0
VERTEX
  5
3D2
  8
0
 10
1884.233204346589
 20
1149.3323142170441
 30
0.0
  0
VERTEX
  5
3D3
  8
0
 10
1884.875115858787
 20
1149.438852596156
 30
0.0
  0
VERTEX
  5
3D4
  8
0
 10
1885.516437789543
 20
1149.547733369521
 30
0.0
  0
VERTEX
  5
3D5
  8
0
 10
1886.1571567498511
 20
1149.6589533813039
 30
0.0
  0
VERTEX
  5
3D6
  8
0
 10
1886.7972593507061
 20
1149.772509475669
 30
0.0
  0
VERTEX
  5
3D7
  8
0
 10
1887.4367322030989
 20
1149.8883984967799
 30
0.0
  0
VERTEX
  5
3D8
  8
0
 10
1888.075561918027
 20
1150.006617288801
 30
0.0
  0
VERTEX
  5
3D9
  8
0
 10
1888.713735106481
 20
1150.127162695896
 30
0.0
  0
VERTEX
  5
3DA
  8
0
 10
1889.3512383794571
 20
1150.250031562229
 30
0.0
  0
VERTEX
  5
3DB
  8
0
 10
1889.9880583479469
 20
1150.3752207319631
 30
0.0
  0
VERTEX
  5
3DC
  8
0
 10
1890.624181622946
 20
1150.502727049264
 30
0.0
  0
VERTEX
  5
3DD
  8
0
 10
1891.259594815446
 20
1150.6325473582949
 30
0.0
  0
VERTEX
  5
3DE
  8
0
 10
1891.8942845364429
 20
1150.7646785032191
 30
0.0
  0
VERTEX
  5
3DF
  8
0
 10
1892.5282373969289
 20
1150.899117328202
 30
0.0
  0
VERTEX
  5
3E0
  8
0
 10
1893.161440007899
 20
1151.0358606774059
 30
0.0
  0
VERTEX
  5
3E1
  8
0
 10
1893.7938789803461
 20
1151.174905394997
 30
0.0
  0
VERTEX
  5
3E2
  8
0
 10
1894.425540925263
 20
1151.3162483251369
 30
0.0
  0
VERTEX
  5
3E3
  8
0
 10
1895.0564124536461
 20
1151.459886311992
 30
0.0
  0
VERTEX
  5
3E4
  8
0
 10
1895.6864801764871
 20
1151.605816199725
 30
0.0
  0
VERTEX
  5
3E5
  8
0
 10
1896.3157307047791
 20
1151.7540348325001
 30
0.0
  0
VERTEX
  5
3E6
  8
0
 10
1896.944150649518
 20
1151.9045390544809
 30
0.0
  0
VERTEX
  5
3E7
  8
0
 10
1897.5717266216971
 20
1152.057325709832
 30
0.0
  0
VERTEX
  5
3E8
  8
0
 10
1898.1984452323079
 20
1152.212391642717
 30
0.0
  0
VERTEX
  5
3E9
  8
0
 10
1898.824293092347
 20
1152.3697336973009
 30
0.0
  0
VERTEX
  5
3EA
  8
0
 10
1899.4492568128071
 20
1152.529348717746
 30
0.0
  0
VERTEX
  5
3EB
  8
0
 10
1900.0733230046801
 20
1152.691233548218
 30
0.0
  0
VERTEX
  5
3EC
  8
0
 10
1900.696478278963
 20
1152.8553850328799
 30
0.0
  0
VERTEX
  5
3ED
  8
0
 10
1901.3187092466469
 20
1153.0218000158959
 30
0.0
  0
VERTEX
  5
3EE
  8
0
 10
1901.9400025187281
 20
1153.1904753414301
 30
0.0
  0
VERTEX
  5
3EF
  8
0
 10
1902.5603447061969
 20
1153.3614078536471
 30
0.0
  0
VERTEX
  5
3F0
  8
0
 10
1903.17972242005
 20
1153.5345943967091
 30
0.0
  0
VERTEX
  5
3F1
  8
0
 10
1903.7981222712799
 20
1153.710031814782
 30
0.0
  0
VERTEX
  5
3F2
  8
0
 10
1904.415530870881
 20
1153.8877169520299
 30
0.0
  0
VERTEX
  5
3F3
  8
0
 10
1905.0319348298469
 20
1154.0676466526149
 30
0.0
  0
VERTEX
  5
3F4
  8
0
 10
1905.64732075917
 20
1154.2498177607031
 30
0.0
  0
VERTEX
  5
3F5
  8
0
 10
1906.2616752698459
 20
1154.4342271204571
 30
0.0
  0
VERTEX
  5
3F6
  8
0
 10
1906.874984972867
 20
1154.6208715760411
 30
0.0
  0
VERTEX
  5
3F7
  8
0
 10
1907.4872364792279
 20
1154.80974797162
 30
0.0
  0
VERTEX
  5
3F8
  8
0
 10
1908.0984163999219
 20
1155.000853151357
 30
0.0
  0
VERTEX
  5
3F9
  8
0
 10
1908.708511345943
 20
1155.1941839594169
 30
0.0
  0
VERTEX
  5
3FA
  8
0
 10
1909.3175079282851
 20
1155.3897372399631
 30
0.0
  0
SEQEND
  5
3FB
  8
0
  0
POLYLINE
  5
217
  8
0
 66
     1
 10
0.0
 20
0.0
 30
0.0
  0
VERTEX
  5
3FC
  8
0
 10
1909.3175079282851
 20
1155.3897372399631
 30
0.0
  0
VERTEX
  5
3FD
  8
0
 10
1910.92509601436
 20
1155.893415293689
 30
0.0
  0
VERTEX
  5
3FE
  8
0
 10
1912.5226683346571
 20
1156.415921854343
 30
0.0
  0
VERTEX
  5
3FF
  8
0
 10
1914.1104384510361
 20
1156.956821489887
 30
0.0
  0
VERTEX
  5
400
  8
0
 10
1915.6886199253549
 20
1157.5156787682829
 30
0.0
  0
VERTEX
  5
401
  8
0
 10
1917.2574263194749
 20
1158.092058257495
 30
0.0
  0
VERTEX
  5
402
  8
0
 10
1918.817071195253
 20
1158.6855245254851
 30
0.0
  0
VERTEX
  5
403
  8
0
 10
1920.3677681145491
 20
1159.2956421402159
 30
0.0
  0
VERTEX
  5
404
  8
0
 10
1921.9097306392221
 20
1159.9219756696509
 30
0.0
  0
VERTEX
  5
405
  8
0
 10
1923.443172331132
 20
1160.5640896817511
 30
0.0
  0
VERTEX
  5
406
  8
0
 10
1924.968306752138
 20
1161.2215487444801
 30
0.0
  0
VERTEX
  5
407
  8
0
 10
1926.485347464097
 20
1161.8939174258001
 30
0.0
  0
VERTEX
  5
408
  8
0
 10
1927.994508028871
 20
1162.5807602936741
 30
0.0
  0
VERTEX
  5
409
  8
0
 10
1929.496002008317
 20
1163.2816419160649
 30
0.0
  0
VERTEX
  5
40A
  8
0
 10
1930.990042964296
 20
1163.996126860935
 30
0.0
  0
VERTEX
  5
40B
  8
0
 10
1932.476844458665
 20
1164.723779696247
 30
0.0
  0
VERTEX
  5
40C
  8
0
 10
1933.956620053285
 20
1165.4641649899629
 30
0.0
  0
VERTEX
  5
40D
  8
0
 10
1935.4295833100141
 20
1166.216847310046
 30
0.0
  0
VERTEX
  5
40E
  8
0
 10
1936.8959477907119
 20
1166.9813912244599
 30
0.0
  0
VERTEX
  5
40F
  8
0
 10
1938.3559270572371
 20
1167.7573613011659
 30
0.0
  0
VERTEX
  5
410
  8
0
 10
1939.809734671449
 20
1168.5443221081271
 30
0.0
  0
VERTEX
  5
411
  8
0
 10
1941.2575841952071
 20
1169.3418382133059
 30
0.0
  0
VERTEX
  5
412
  8
0
 10
1942.69968919037
 20
1170.149474184665
 30
0.0
  0
VERTEX
  5
413
  8
0
 10
1944.136263218797
 20
1170.966794590167
 30
0.0
  0
VERTEX
  5
414
  8
0
 10
1945.5675198423471
 20
1171.7933639977759
 30
0.0
  0
VERTEX
  5
415
  8
0
 10
1946.99367262288
 20
1172.628746975452
 30
0.0
  0
VERTEX
  5
416
  8
0
 10
1948.414935122255
 20
1173.4725080911589
 30
0.0
  0
VERTEX
  5
417
  8
0
 10
1949.8315209023301
 20
1174.3242119128599
 30
0.0
  0
VERTEX
  5
418
  8
0
 10
1951.2436435249649
 20
1175.183423008518
 30
0.0
  0
VERTEX
  5
419
  8
0
 10
1952.6515165520191
 20
1176.049705946094
 30
0.0
  0
VERTEX
  5
41A
  8
0
 10
1954.05535354535
 20
1176.9226252935521
 30
0.0
  0
VERTEX
  5
41B
  8
0
 10
1955.4553680668189
 20
1177.8017456188541
 30
0.0
  0
VERTEX
  5
41C
  8
0
 10
1956.8517736782851
 20
1178.686631489963
 30
0.0
  0
VERTEX
  5
41D
  8
0
 10
1958.2447839416061
 20
1179.5768474748411
 30
0.0
  0
VERTEX
  5
41E
  8
0
 10
1959.6346124186421
 20
1180.471958141452
 30
0.0
  0
VERTEX
  5
41F
  8
0
 10
1962.4055782612929
 20
1182.2751217917209
 30
0.0
  0
VERTEX
  5
420
  8
0
 10
1965.166379701112
 20
1184.0926389844701
 30
0.0
  0
VERTEX
  5
421
  8
0
 10
1967.9187252329721
 20
1185.9210262634001
 30
0.0
  0
VERTEX
  5
422
  8
0
 10
1970.664323351747
 20
1187.7568001722141
 30
0.0
  0
VERTEX
  5
423
  8
0
 10
1973.404882552308
 20
1189.596477254611
 30
0.0
  0
VERTEX
  5
424
  8
0
 10
1978.877718178285
 20
1193.2736071149629
 30
0.0
  0
VERTEX
  5
425
  8
0
 10
1981.613411593446
 20
1195.10409298032
 30
0.0
  0
VERTEX
  5
426
  8
0
 10
1984.3509000698859
 20
1196.9245481940641
 30
0.0
  0
VERTEX
  5
427
  8
0
 10
1987.0918921024791
 20
1198.7314892998991
 30
0.0
  0
VERTEX
  5
428
  8
0
 10
1989.8380961860969
 20
1200.521432841525
 30
0.0
  0
VERTEX
  5
429
  8
0
 10
1991.2136866516889
 20
1201.408941945667
 30
0.0
  0
VERTEX
  5
42A
  8
0
 10
1992.591220815614
 20
1202.2908953626441
 30
0.0
  0
VERTEX
  5
42B
  8
0
 10
1993.9709122397319
 20
1203.1668576604191
 30
0.0
  0
VERTEX
  5
42C
  8
0
 10
1995.352974485902
 20
1204.0363934069551
 30
0.0
  0
VERTEX
  5
42D
  8
0
 10
1996.7376211159831
 20
1204.8990671702149
 30
0.0
  0
VERTEX
  5
42E
  8
0
 10
1998.1250656918351
 20
1205.754443518161
 30
0.0
  0
VERTEX
  5
42F
  8
0
 10
1999.5155217753161
 20
1206.602087018756
 30
0.0
  0
VERTEX
  5
430
  8
0
 10
2000.9092029282849
 20
1207.4415622399631
 30
0.0
  0
SEQEND
  5
431
  8
0
  0
POLYLINE
  5
218
  8
0
 66
     1
 10
0.0
 20
0.0
 30
0.0
  0
VERTEX
  5
432
  8
0
 10
2000.9092029282849
 20
1207.4415622399631
 30
0.0
  0
VERTEX
  5
433
  8
0
 10
2001.6597352846161
 20
1207.9147027910569
 30
0.0
  0
VERTEX
  5
434
  8
0
 10
2002.417148468385
 20
1208.3804682336761
 30
0.0
  0
VERTEX
  5
435
  8
0
 10
2003.1812721205081
 20
1208.8386601580769
 30
0.0
  0
VERTEX
  5
436
  8
0
 10
2003.951935881898
 20
1209.2890801545141
 30
0.0
  0
VERTEX
  5
437
  8
0
 10
2004.728969393472
 20
1209.731529813243
 30
0.0
  0
VERTEX
  5
438
  8
0
 10
2005.5122022961441
 20
1210.165810724521
 30
0.0
  0
VERTEX
  5
439
  8
0
 10
2006.301464230829
 20
1210.5917244786031
 30
0.0
  0
VERTEX
  5
43A
  8
0
 10
2007.096584838441
 20
1211.009072665744
 30
0.0
  0
VERTEX
  5
43B
  8
0
 10
2007.8973937598971
 20
1211.4176568762009
 30
0.0
  0
VERTEX
  5
43C
  8
0
 10
2008.7037206361099
 20
1211.8172787002291
 30
0.0
  0
VERTEX
  5
43D
  8
0
 10
2009.515395107996
 20
1212.2077397280841
 30
0.0
  0
VERTEX
  5
43E
  8
0
 10
2010.332246816469
 20
1212.5888415500219
 30
0.0
  0
VERTEX
  5
43F
  8
0
 10
2011.1541054024451
 20
1212.9603857562979
 30
0.0
  0
VERTEX
  5
440
  8
0
 10
2011.980800506838
 20
1213.3221739371679
 30
0.0
  0
VERTEX
  5
441
  8
0
 10
2012.8121617705631
 20
1213.6740076828869
 30
0.0
  0
VERTEX
  5
442
  8
0
 10
2013.6480188345349
 20
1214.015688583713
 30
0.0
  0
VERTEX
  5
443
  8
0
 10
2014.48820133967
 20
1214.3470182299
 30
0.0
  0
VERTEX
  5
444
  8
0
 10
2015.3325389268821
 20
1214.6677982117039
 30
0.0
  0
VERTEX
  5
445
  8
0
 10
2016.1808612370851
 20
1214.9778301193801
 30
0.0
  0
VERTEX
  5
446
  8
0
 10
2017.032997911195
 20
1215.2769155431861
 30
0.0
  0
VERTEX
  5
447
  8
0
 10
2017.8887785901279
 20
1215.564856073375
 30
0.0
  0
VERTEX
  5
448
  8
0
 10
2018.7480329147961
 20
1215.8414533002051
 30
0.0
  0
VERTEX
  5
449
  8
0
 10
2019.610590526117
 20
1216.1065088139301
 30
0.0
  0
VERTEX
  5
44A
  8
0
 10
2020.4762810650041
 20
1216.359824204807
 30
0.0
  0
VERTEX
  5
44B
  8
0
 10
2021.3449341723719
 20
1216.6012010630909
 30
0.0
  0
VERTEX
  5
44C
  8
0
 10
2022.2163794891369
 20
1216.830440979038
 30
0.0
  0
VERTEX
  5
44D
  8
0
 10
2023.090446656214
 20
1217.047345542903
 30
0.0
  0
VERTEX
  5
44E
  8
0
 10
2023.9669653145161
 20
1217.2517163449429
 30
0.0
  0
VERTEX
  5
44F
  8
0
 10
2024.8457651049589
 20
1217.443354975414
 30
0.0
  0
VERTEX
  5
450
  8
0
 10
2025.7266756684589
 20
1217.62206302457
 30
0.0
  0
VERTEX
  5
451
  8
0
 10
2026.609526645929
 20
1217.7876420826681
 30
0.0
  0
VERTEX
  5
452
  8
0
 10
2027.4941476782849
 20
1217.9398937399631
 30
0.0
  0
VERTEX
  5
453
  8
0
 10
2028.3803684064419
 20
1218.0786195867111
 30
0.0
  0
VERTEX
  5
454
  8
0
 10
2029.2680184713149
 20
1218.2036212131691
 30
0.0
  0
VERTEX
  5
455
  8
0
 10
2030.1569275138179
 20
1218.31470020959
 30
0.0
  0
VERTEX
  5
456
  8
0
 10
2031.046925174868
 20
1218.411658166232
 30
0.0
  0
VERTEX
  5
457
  8
0
 10
2031.9378410953771
 20
1218.4942966733511
 30
0.0
  0
VERTEX
  5
458
  8
0
 10
2032.8295049162609
 20
1218.5624173212011
 30
0.0
  0
VERTEX
  5
459
  8
0
 10
2033.7217462784361
 20
1218.6158217000379
 30
0.0
  0
VERTEX
  5
45A
  8
0
 10
2034.6143948228171
 20
1218.654311400119
 30
0.0
  0
VERTEX
  5
45B
  8
0
 10
2035.507280190317
 20
1218.677688011699
 30
0.0
  0
VERTEX
  5
45C
  8
0
 10
2036.4002320218519
 20
1218.6857531250339
 30
0.0
  0
VERTEX
  5
45D
  8
0
 10
2037.2930799583371
 20
1218.678308330379
 30
0.0
  0
VERTEX
  5
45E
  8
0
 10
2038.1856536406881
 20
1218.6551552179901
 30
0.0
  0
VERTEX
  5
45F
  8
0
 10
2039.0777827098179
 20
1218.6160953781241
 30
0.0
  0
VERTEX
  5
460
  8
0
 10
2039.969296806642
 20
1218.560930401035
 30
0.0
  0
VERTEX
  5
461
  8
0
 10
2040.860025572076
 20
1218.489461876979
 30
0.0
  0
VERTEX
  5
462
  8
0
 10
2041.749798647035
 20
1218.401491396213
 30
0.0
  0
VERTEX
  5
463
  8
0
 10
2042.638445672434
 20
1218.2968205489919
 30
0.0
  0
VERTEX
  5
464
  8
0
 10
2043.525796289186
 20
1218.1752509255709
 30
0.0
  0
VERTEX
  5
465
  8
0
 10
2044.4116801382081
 20
1218.036584116207
 30
0.0
  0
VERTEX
  5
466
  8
0
 10
2045.2959268604141
 20
1217.8806217111539
 30
0.0
  0
VERTEX
  5
467
  8
0
 10
2046.1783660967189
 20
1217.7071653006701
 30
0.0
  0
VERTEX
  5
468
  8
0
 10
2047.0588274880381
 20
1217.5160164750091
 30
0.0
  0
VERTEX
  5
469
  8
0
 10
2047.9371406752871
 20
1217.3069768244279
 30
0.0
  0
VERTEX
  5
46A
  8
0
 10
2048.8131352993792
 20
1217.0798479391819
 30
0.0
  0
VERTEX
  5
46B
  8
0
 10
2049.6866410012299
 20
1216.8344314095259
 30
0.0
  0
VERTEX
  5
46C
  8
0
 10
2050.5574874217541
 20
1216.5705288257179
 30
0.0
  0
VERTEX
  5
46D
  8
0
 10
2051.4255042018672
 20
1216.2879417780109
 30
0.0
  0
VERTEX
  5
46E
  8
0
 10
2052.2905209824839
 20
1215.9864718566621
 30
0.0
  0
VERTEX
  5
46F
  8
0
 10
2053.1523674045202
 20
1215.6659206519271
 30
0.0
  0
VERTEX
  5
470
  8
0
 10
2054.0158963750032
 20
1215.341046562675
 30
0.0
  0
VERTEX
  5
471
  8
0
 10
2054.859676206107
 20
1215.0322762851929
 30
0.0
  0
VERTEX
  5
472
  8
0
 10
2055.774706937329
 20
1214.6807176006009
 30
0.0
  0
SEQEND
  5
473
  8
0
  0
POLYLINE
  5
219
  8
0
 66
     1
 10
0.0
 20
0.0
 30
0.0
  0
VERTEX
  5
474
  8
0
 10
2055.774706937329
 20
1214.6807176006009
 30
0.0
  0
VERTEX
  5
475
  8
0
 10
2057.035911224461
 20
1214.197239875064
 30
0.0
  0
VERTEX
  5
476
  8
0
 10
2058.3406196625692
 20
1213.714905209659
 30
0.0
  0
VERTEX
  5
477
  8
0
 10
2059.652576586911
 20
1213.26303712194
 30
0.0
  0
VERTEX
  5
478
  8
0
 10
2060.9647674509902
 20
1212.801834087375
 30
0.0
  0
VERTEX
  5
479
  8
0
 10
2062.277248931005
 20
1212.3320064321131
 30
0.0
  0
VERTEX
  5
47A
  8
0
 10
2063.590077703157
 20
1211.8542644823031
 30
0.0
  0
VERTEX
  5
47B
  8
0
 10
2064.9033104436462
 20
1211.3693185640941
 30
0.0
  0
VERTEX
  5
47C
  8
0
 10
2066.2170038286758
 20
1210.8778790036349
 30
0.0
  0
VERTEX
  5
47D
  8
0
 10
2067.5312145344442
 20
1210.3806561270751
 30
0.0
  0
VERTEX
  5
47E
  8
0
 10
2068.845999237154
 20
1209.878360260562
 30
0.0
  0
VERTEX
  5
47F
  8
0
 10
2070.1614146130041
 20
1209.371701730247
 30
0.0
  0
VERTEX
  5
480
  8
0
 10
2071.4775173381968
 20
1208.8613908622769
 30
0.0
  0
VERTEX
  5
481
  8
0
 10
2074.1120115414142
 20
1207.8326534179721
 30
0.0
  0
VERTEX
  5
482
  8
0
 10
2076.74993525641
 20
1206.7978305368381
 30
0.0
  0
VERTEX
  5
483
  8
0
 10
2079.3917418927931
 20
1205.762604828067
 30
0.0
  0
VERTEX
  5
484
  8
0
 10
2082.0378848601699
 20
1204.7326589008519
 30
0.0
  0
VERTEX
  5
485
  8
0
 10
2083.3627241584832
 20
1204.2214416706991
 30
0.0
  0
VERTEX
  5
486
  8
0
 10
2084.688817568147
 20
1203.7136753643831
 30
0.0
  0
VERTEX
  5
487
  8
0
 10
2086.0162217653642
 20
1203.2100703080509
 30
0.0
  0
VERTEX
  5
488
  8
0
 10
2087.3449934263331
 20
1202.711336827854
 30
0.0
  0
VERTEX
  5
489
  8
0
 10
2088.675189227255
 20
1202.218185249938
 30
0.0
  0
VERTEX
  5
48A
  8
0
 10
2090.0068658443311
 20
1201.731325900455
 30
0.0
  0
VERTEX
  5
48B
  8
0
 10
2091.340079953764
 20
1201.2514691055519
 30
0.0
  0
VERTEX
  5
48C
  8
0
 10
2092.674888231752
 20
1200.779325191379
 30
0.0
  0
VERTEX
  5
48D
  8
0
 10
2094.011347354498
 20
1200.315604484085
 30
0.0
  0
VERTEX
  5
48E
  8
0
 10
2095.349513998201
 20
1199.861017309817
 30
0.0
  0
VERTEX
  5
48F
  8
0
 10
2096.6894448390631
 20
1199.4162739947269
 30
0.0
  0
VERTEX
  5
490
  8
0
 10
2098.0311965532851
 20
1198.9820848649631
 30
0.0
  0
VERTEX
  5
491
  8
0
 10
2099.3748258170681
 20
1198.5591602466729
 30
0.0
  0
VERTEX
  5
492
  8
0
 10
2100.7203893066121
 20
1198.148210466007
 30
0.0
  0
VERTEX
  5
493
  8
0
 10
2102.0679436981181
 20
1197.7499458491129
 30
0.0
  0
VERTEX
  5
494
  8
0
 10
2103.4175456677872
 20
1197.3650767221411
 30
0.0
  0
VERTEX
  5
495
  8
0
 10
2104.0931322057459
 20
1197.1778874442971
 30
0.0
  0
VERTEX
  5
496
  8
0
 10
2104.7692518918211
 20
1196.9943134112391
 30
0.0
  0
VERTEX
  5
497
  8
0
 10
2105.4459118105369
 20
1196.8144434137359
 30
0.0
  0
VERTEX
  5
498
  8
0
 10
2106.1231190464191
 20
1196.6383662425569
 30
0.0
  0
VERTEX
  5
499
  8
0
 10
2106.800880683993
 20
1196.4661706884699
 30
0.0
  0
VERTEX
  5
49A
  8
0
 10
2107.4792038077831
 20
1196.297945542243
 30
0.0
  0
VERTEX
  5
49B
  8
0
 10
2108.1580955023142
 20
1196.1337795946461
 30
0.0
  0
VERTEX
  5
49C
  8
0
 10
2108.8375628521139
 20
1195.9737616364471
 30
0.0
  0
VERTEX
  5
49D
  8
0
 10
2109.5176129417041
 20
1195.8179804584149
 30
0.0
  0
VERTEX
  5
49E
  8
0
 10
2110.1982528556118
 20
1195.6665248513179
 30
0.0
  0
VERTEX
  5
49F
  8
0
 10
2110.8794896783611
 20
1195.5194836059241
 30
0.0
  0
VERTEX
  5
4A0
  8
0
 10
2111.5613304944782
 20
1195.3769455130041
 30
0.0
  0
VERTEX
  5
4A1
  8
0
 10
2112.243782388487
 20
1195.238999363324
 30
0.0
  0
VERTEX
  5
4A2
  8
0
 10
2112.9268524449139
 20
1195.105733947654
 30
0.0
  0
VERTEX
  5
4A3
  8
0
 10
2113.6105477482829
 20
1194.977238056762
 30
0.0
  0
VERTEX
  5
4A4
  8
0
 10
2114.2948753831188
 20
1194.853600481418
 30
0.0
  0
VERTEX
  5
4A5
  8
0
 10
2114.9798424339492
 20
1194.734910012389
 30
0.0
  0
VERTEX
  5
4A6
  8
0
 10
2115.6654559852959
 20
1194.621255440444
 30
0.0
  0
VERTEX
  5
4A7
  8
0
 10
2116.3517231216861
 20
1194.5127255563521
 30
0.0
  0
VERTEX
  5
4A8
  8
0
 10
2117.038650927645
 20
1194.4094091508821
 30
0.0
  0
VERTEX
  5
4A9
  8
0
 10
2117.7262464876958
 20
1194.311395014802
 30
0.0
  0
VERTEX
  5
4AA
  8
0
 10
2118.4145168863661
 20
1194.2187719388801
 30
0.0
  0
VERTEX
  5
4AB
  8
0
 10
2119.103469208178
 20
1194.1316287138859
 30
0.0
  0
VERTEX
  5
4AC
  8
0
 10
2119.7931105376601
 20
1194.050054130588
 30
0.0
  0
VERTEX
  5
4AD
  8
0
 10
2120.4834479593351
 20
1193.9741369797539
 30
0.0
  0
VERTEX
  5
4AE
  8
0
 10
2121.1744885577291
 20
1193.9039660521539
 30
0.0
  0
VERTEX
  5
4AF
  8
0
 10
2121.8662394173671
 20
1193.8396301385551
 30
0.0
  0
VERTEX
  5
4B0
  8
0
 10
2122.5587076227739
 20
1193.7812180297269
 30
0.0
  0
VERTEX
  5
4B1
  8
0
 10
2123.251900258475
 20
1193.728818516438
 30
0.0
  0
VERTEX
  5
4B2
  8
0
 10
2123.9458244089942
 20
1193.6825203894571
 30
0.0
  0
VERTEX
  5
4B3
  8
0
 10
2124.6404871588579
 20
1193.6424124395519
 30
0.0
  0
VERTEX
  5
4B4
  8
0
 10
2125.3358955925919
 20
1193.6085834574919
 30
0.0
  0
VERTEX
  5
4B5
  8
0
 10
2126.0320567947201
 20
1193.581122234046
 30
0.0
  0
VERTEX
  5
4B6
  8
0
 10
2126.728977849767
 20
1193.5601175599811
 30
0.0
  0
VERTEX
  5
4B7
  8
0
 10
2127.4266658422589
 20
1193.5456582260681
 30
0.0
  0
VERTEX
  5
4B8
  8
0
 10
2128.1251278567211
 20
1193.537833023074
 30
0.0
  0
VERTEX
  5
4B9
  8
0
 10
2128.8243709776789
 20
1193.5367307417689
 30
0.0
  0
VERTEX
  5
4BA
  8
0
 10
2129.524402289655
 20
1193.5424401729199
 30
0.0
  0
VERTEX
  5
4BB
  8
0
 10
2130.225228877177
 20
1193.555050107296
 30
0.0
  0
VERTEX
  5
4BC
  8
0
 10
2130.9268578247688
 20
1193.574649335666
 30
0.0
  0
VERTEX
  5
4BD
  8
0
 10
2131.6292962169568
 20
1193.6013266487989
 30
0.0
  0
VERTEX
  5
4BE
  8
0
 10
2132.332551138265
 20
1193.635170837463
 30
0.0
  0
VERTEX
  5
4BF
  8
0
 10
2133.0366296732191
 20
1193.676270692426
 30
0.0
  0
VERTEX
  5
4C0
  8
0
 10
2133.7415389063431
 20
1193.7247150044591
 30
0.0
  0
VERTEX
  5
4C1
  8
0
 10
2134.4472859221628
 20
1193.7805925643279
 30
0.0
  0
VERTEX
  5
4C2
  8
0
 10
2135.153877805204
 20
1193.843992162803
 30
0.0
  0
VERTEX
  5
4C3
  8
0
 10
2135.8613216399908
 20
1193.915002590652
 30
0.0
  0
VERTEX
  5
4C4
  8
0
 10
2136.5696245110489
 20
1193.993712638644
 30
0.0
  0
VERTEX
  5
4C5
  8
0
 10
2137.2787935029032
 20
1194.080211097548
 30
0.0
  0
VERTEX
  5
4C6
  8
0
 10
2137.9888357000791
 20
1194.1745867581319
 30
0.0
  0
VERTEX
  5
4C7
  8
0
 10
2138.699758187101
 20
1194.276928411165
 30
0.0
  0
VERTEX
  5
4C8
  8
0
 10
2139.4115680484938
 20
1194.3873248474149
 30
0.0
  0
VERTEX
  5
4C9
  8
0
 10
2140.1242723687842
 20
1194.505864857651
 30
0.0
  0
VERTEX
  5
4CA
  8
0
 10
2140.8378782324962
 20
1194.6326372326421
 30
0.0
  0
VERTEX
  5
4CB
  8
0
 10
2141.5523927241538
 20
1194.767730763157
 30
0.0
  0
VERTEX
  5
4CC
  8
0
 10
2142.270796369025
 20
1194.90013720805
 30
0.0
  0
SEQEND
  5
4CD
  8
0
  0
POLYLINE
  5
21A
  8
0
 66
     1
 10
0.0
 20
0.0
 30
0.0
  0
VERTEX
  5
4CE
  8
0
 10
2142.270796369025
 20
1194.90013720805
 30
0.0
  0
VERTEX
  5
4CF
  8
0
 10
2142.9703894345248
 20
1195.0206244764629
 30
0.0
  0
VERTEX
  5
4D0
  8
0
 10
2143.6702257665302
 20
1195.1376569320139
 30
0.0
  0
VERTEX
  5
4D1
  8
0
 10
2144.3673029801721
 20
1195.262280858502
 30
0.0
  0
VERTEX
  5
4D2
  8
0
 10
2145.0615921313188
 20
1195.394445507816
 30
0.0
  0
VERTEX
  5
4D3
  8
0
 10
2145.7530642758388
 20
1195.5341001318409
 30
0.0
  0
VERTEX
  5
4D4
  8
0
 10
2146.4416904696018
 20
1195.681193982467
 30
0.0
  0
VERTEX
  5
4D5
  8
0
 10
2147.1274417684781
 20
1195.8356763115789
 30
0.0
  0
VERTEX
  5
4D6
  8
0
 10
2147.8102892283341
 20
1195.9974963710661
 30
0.0
  0
VERTEX
  5
4D7
  8
0
 10
2148.4902039050412
 20
1196.166603412815
 30
0.0
  0
VERTEX
  5
4D8
  8
0
 10
2149.1671568544671
 20
1196.3429466887119
 30
0.0
  0
VERTEX
  5
4D9
  8
0
 10
2149.8411191324808
 20
1196.5264754506461
 30
0.0
  0
VERTEX
  5
4DA
  8
0
 10
2150.5120617949542
 20
1196.717138950504
 30
0.0
  0
VERTEX
  5
4DB
  8
0
 10
2151.1799558977532
 20
1196.914886440172
 30
0.0
  0
VERTEX
  5
4DC
  8
0
 10
2151.8447724967468
 20
1197.119667171539
 30
0.0
  0
VERTEX
  5
4DD
  8
0
 10
2152.5064826478078
 20
1197.331430396491
 30
0.0
  0
VERTEX
  5
4DE
  8
0
 10
2153.1650574068012
 20
1197.5501253669161
 30
0.0
  0
VERTEX
  5
4DF
  8
0
 10
2153.8204678295979
 20
1197.7757013347009
 30
0.0
  0
VERTEX
  5
4E0
  8
0
 10
2154.472684972066
 20
1198.0081075517339
 30
0.0
  0
VERTEX
  5
4E1
  8
0
 10
2155.1216798900768
 20
1198.247293269902
 30
0.0
  0
VERTEX
  5
4E2
  8
0
 10
2155.7674236394969
 20
1198.493207741092
 30
0.0
  0
VERTEX
  5
4E3
  8
0
 10
2156.409887276197
 20
1198.745800217192
 30
0.0
  0
VERTEX
  5
4E4
  8
0
 10
2157.0490418560462
 20
1199.0050199500879
 30
0.0
  0
VERTEX
  5
4E5
  8
0
 10
2157.6848584349132
 20
1199.270816191668
 30
0.0
  0
VERTEX
  5
4E6
  8
0
 10
2158.3173080686661
 20
1199.5431381938199
 30
0.0
  0
VERTEX
  5
4E7
  8
0
 10
2158.9463618131758
 20
1199.8219352084309
 30
0.0
  0
VERTEX
  5
4E8
  8
0
 10
2159.5719907243101
 20
1200.107156487388
 30
0.0
  0
VERTEX
  5
4E9
  8
0
 10
2160.1941658579381
 20
1200.3987512825779
 30
0.0
  0
VERTEX
  5
4EA
  8
0
 10
2160.8128582699301
 20
1200.696668845889
 30
0.0
  0
VERTEX
  5
4EB
  8
0
 10
2161.4280390161539
 20
1201.0008584292091
 30
0.0
  0
VERTEX
  5
4EC
  8
0
 10
2162.039679152479
 20
1201.3112692844229
 30
0.0
  0
VERTEX
  5
4ED
  8
0
 10
2162.6477497347751
 20
1201.627850663421
 30
0.0
  0
VERTEX
  5
4EE
  8
0
 10
2163.2522218189101
 20
1201.9505518180879
 30
0.0
  0
VERTEX
  5
4EF
  8
0
 10
2163.8530664607551
 20
1202.279322000312
 30
0.0
  0
VERTEX
  5
4F0
  8
0
 10
2164.4502547161769
 20
1202.6141104619819
 30
0.0
  0
VERTEX
  5
4F1
  8
0
 10
2165.0437576410459
 20
1202.9548664549829
 30
0.0
  0
VERTEX
  5
4F2
  8
0
 10
2165.6335462912311
 20
1203.3015392312041
 30
0.0
  0
VERTEX
  5
4F3
  8
0
 10
2166.2195917226009
 20
1203.6540780425321
 30
0.0
  0
VERTEX
  5
4F4
  8
0
 10
2166.801864991025
 20
1204.012432140853
 30
0.0
  0
VERTEX
  5
4F5
  8
0
 10
2167.3803371523741
 20
1204.3765507780561
 30
0.0
  0
VERTEX
  5
4F6
  8
0
 10
2167.9549792625139
 20
1204.7463832060271
 30
0.0
  0
VERTEX
  5
4F7
  8
0
 10
2168.525762377315
 20
1205.1218786766549
 30
0.0
  0
VERTEX
  5
4F8
  8
0
 10
2169.0926575526478
 20
1205.502986441825
 30
0.0
  0
VERTEX
  5
4F9
  8
0
 10
2169.65563584438
 20
1205.889655753426
 30
0.0
  0
VERTEX
  5
4FA
  8
0
 10
2170.214668308382
 20
1206.2818358633449
 30
0.0
  0
VERTEX
  5
4FB
  8
0
 10
2170.7697260005211
 20
1206.67947602347
 30
0.0
  0
VERTEX
  5
4FC
  8
0
 10
2171.3207799766669
 20
1207.082525485687
 30
0.0
  0
VERTEX
  5
4FD
  8
0
 10
2171.8678012926889
 20
1207.4909335018831
 30
0.0
  0
VERTEX
  5
4FE
  8
0
 10
2172.4107610044571
 20
1207.9046493239471
 30
0.0
  0
VERTEX
  5
4FF
  8
0
 10
2172.9496301678391
 20
1208.323622203766
 30
0.0
  0
VERTEX
  5
500
  8
0
 10
2173.4843798387051
 20
1208.7478013932259
 30
0.0
  0
VERTEX
  5
501
  8
0
 10
2174.0149810729231
 20
1209.177136144215
 30
0.0
  0
VERTEX
  5
502
  8
0
 10
2174.5414049263632
 20
1209.6115757086211
 30
0.0
  0
VERTEX
  5
503
  8
0
 10
2175.0636224548939
 20
1210.051069338331
 30
0.0
  0
VERTEX
  5
504
  8
0
 10
2175.581604714384
 20
1210.4955662852319
 30
0.0
  0
VERTEX
  5
505
  8
0
 10
2176.0953227607029
 20
1210.945015801211
 30
0.0
  0
VERTEX
  5
506
  8
0
 10
2176.604747649721
 20
1211.3993671381561
 30
0.0
  0
VERTEX
  5
507
  8
0
 10
2177.1098504373058
 20
1211.8585695479551
 30
0.0
  0
VERTEX
  5
508
  8
0
 10
2177.6106021793271
 20
1212.322572282493
 30
0.0
  0
VERTEX
  5
509
  8
0
 10
2178.1069739316531
 20
1212.7913245936591
 30
0.0
  0
VERTEX
  5
50A
  8
0
 10
2178.5989367501538
 20
1213.2647757333409
 30
0.0
  0
VERTEX
  5
50B
  8
0
 10
2179.0864616906988
 20
1213.742874953424
 30
0.0
  0
VERTEX
  5
50C
  8
0
 10
2179.5695198091562
 20
1214.2255715057979
 30
0.0
  0
VERTEX
  5
50D
  8
0
 10
2180.0480821613951
 20
1214.7128146423479
 30
0.0
  0
VERTEX
  5
50E
  8
0
 10
2180.522119803285
 20
1215.2045536149631
 30
0.0
  0
VERTEX
  5
50F
  8
0
 10
2180.991603790696
 20
1215.7007376755289
 30
0.0
  0
VERTEX
  5
510
  8
0
 10
2181.4565051794939
 20
1216.201316075935
 30
0.0
  0
VERTEX
  5
511
  8
0
 10
2181.9167950255519
 20
1216.7062380680661
 30
0.0
  0
VERTEX
  5
512
  8
0
 10
2182.3724443847368
 20
1217.2154529038121
 30
0.0
  0
VERTEX
  5
513
  8
0
 10
2182.8234243129182
 20
1217.7289098350579
 30
0.0
  0
VERTEX
  5
514
  8
0
 10
2183.2697058659651
 20
1218.2465581136919
 30
0.0
  0
VERTEX
  5
515
  8
0
 10
2183.7112600997461
 20
1218.768346991603
 30
0.0
  0
VERTEX
  5
516
  8
0
 10
2184.1480580701309
 20
1219.294225720676
 30
0.0
  0
VERTEX
  5
517
  8
0
 10
2184.5800708329889
 20
1219.8241435527989
 30
0.0
  0
VERTEX
  5
518
  8
0
 10
2185.0072694441892
 20
1220.35804973986
 30
0.0
  0
VERTEX
  5
519
  8
0
 10
2185.4296249596
 20
1220.8958935337459
 30
0.0
  0
VERTEX
  5
51A
  8
0
 10
2185.8471084350908
 20
1221.437624186344
 30
0.0
  0
VERTEX
  5
51B
  8
0
 10
2186.2596909265312
 20
1221.983190949541
 30
0.0
  0
VERTEX
  5
51C
  8
0
 10
2186.6673434897898
 20
1222.532543075225
 30
0.0
  0
VERTEX
  5
51D
  8
0
 10
2187.0700371807361
 20
1223.085629815283
 30
0.0
  0
VERTEX
  5
51E
  8
0
 10
2187.4677430552379
 20
1223.642400421603
 30
0.0
  0
VERTEX
  5
51F
  8
0
 10
2187.8604321691669
 20
1224.2028041460719
 30
0.0
  0
VERTEX
  5
520
  8
0
 10
2188.2480755783899
 20
1224.7667902405769
 30
0.0
  0
VERTEX
  5
521
  8
0
 10
2188.6306443387771
 20
1225.3343079570061
 30
0.0
  0
VERTEX
  5
522
  8
0
 10
2189.0081095061969
 20
1225.905306547244
 30
0.0
  0
VERTEX
  5
523
  8
0
 10
2189.3804421365189
 20
1226.4797352631811
 30
0.0
  0
VERTEX
  5
524
  8
0
 10
2189.7476132856118
 20
1227.0575433567039
 30
0.0
  0
VERTEX
  5
525
  8
0
 10
2190.1095940093451
 20
1227.638680079699
 30
0.0
  0
VERTEX
  5
526
  8
0
 10
2190.4663553635878
 20
1228.223094684055
 30
0.0
  0
VERTEX
  5
527
  8
0
 10
2190.8178684042091
 20
1228.8107364216571
 30
0.0
  0
VERTEX
  5
528
  8
0
 10
2191.164104187078
 20
1229.4015545443949
 30
0.0
  0
VERTEX
  5
529
  8
0
 10
2191.5050337680641
 20
1229.9954983041539
 30
0.0
  0
VERTEX
  5
52A
  8
0
 10
2191.8406282030351
 20
1230.592516952823
 30
0.0
  0
VERTEX
  5
52B
  8
0
 10
2192.1708585478618
 20
1231.1925597422889
 30
0.0
  0
VERTEX
  5
52C
  8
0
 10
2192.4956958584112
 20
1231.795575924438
 30
0.0
  0
VERTEX
  5
52D
  8
0
 10
2192.8151111905549
 20
1232.4015147511591
 30
0.0
  0
VERTEX
  5
52E
  8
0
 10
2193.1290756001608
 20
1233.0103254743381
 30
0.0
  0
VERTEX
  5
52F
  8
0
 10
2193.437560143097
 20
1233.6219573458629
 30
0.0
  0
VERTEX
  5
530
  8
0
 10
2193.7405358752339
 20
1234.2363596176219
 30
0.0
  0
VERTEX
  5
531
  8
0
 10
2194.0379738524421
 20
1234.853481541501
 30
0.0
  0
VERTEX
  5
532
  8
0
 10
2194.3298451305868
 20
1235.473272369388
 30
0.0
  0
VERTEX
  5
533
  8
0
 10
2194.61612076554
 20
1236.09568135317
 30
0.0
  0
VERTEX
  5
534
  8
0
 10
2194.8967718131689
 20
1236.720657744735
 30
0.0
  0
VERTEX
  5
535
  8
0
 10
2195.1717693293449
 20
1237.34815079597
 30
0.0
  0
VERTEX
  5
536
  8
0
 10
2195.4410843699361
 20
1237.978109758762
 30
0.0
  0
VERTEX
  5
537
  8
0
 10
2195.7046879908112
 20
1238.6104838849981
 30
0.0
  0
VERTEX
  5
538
  8
0
 10
2195.9625512478392
 20
1239.2452224265669
 30
0.0
  0
VERTEX
  5
539
  8
0
 10
2196.2146451968888
 20
1239.882274635354
 30
0.0
  0
VERTEX
  5
53A
  8
0
 10
2196.4609408938309
 20
1240.5215897632479
 30
0.0
  0
VERTEX
  5
53B
  8
0
 10
2196.701409394534
 20
1241.1631170621361
 30
0.0
  0
VERTEX
  5
53C
  8
0
 10
2196.9360217548651
 20
1241.8068057839041
 30
0.0
  0
VERTEX
  5
53D
  8
0
 10
2197.1647490306959
 20
1242.4526051804421
 30
0.0
  0
VERTEX
  5
53E
  8
0
 10
2197.3875622778951
 20
1243.1004645036351
 30
0.0
  0
VERTEX
  5
53F
  8
0
 10
2197.6044325523299
 20
1243.750333005371
 30
0.0
  0
VERTEX
  5
540
  8
0
 10
2197.815330909872
 20
1244.4021599375369
 30
0.0
  0
VERTEX
  5
541
  8
0
 10
2198.020228406388
 20
1245.055894552022
 30
0.0
  0
VERTEX
  5
542
  8
0
 10
2198.21909609775
 20
1245.711486100711
 30
0.0
  0
VERTEX
  5
543
  8
0
 10
2198.411905039824
 20
1246.3688838354931
 30
0.0
  0
VERTEX
  5
544
  8
0
 10
2198.5986262884808
 20
1247.0280370082539
 30
0.0
  0
VERTEX
  5
545
  8
0
 10
2198.779230899589
 20
1247.6888948708829
 30
0.0
  0
VERTEX
  5
546
  8
0
 10
2198.9536899290179
 20
1248.3514066752659
 30
0.0
  0
VERTEX
  5
547
  8
0
 10
2199.1219744326372
 20
1249.0155216732901
 30
0.0
  0
VERTEX
  5
548
  8
0
 10
2199.2840554663139
 20
1249.6811891168441
 30
0.0
  0
VERTEX
  5
549
  8
0
 10
2199.4399040859198
 20
1250.3483582578131
 30
0.0
  0
VERTEX
  5
54A
  8
0
 10
2199.5894913473221
 20
1251.0169783480869
 30
0.0
  0
VERTEX
  5
54B
  8
0
 10
2199.7327883063908
 20
1251.6869986395509
 30
0.0
  0
VERTEX
  5
54C
  8
0
 10
2199.8697660189951
 20
1252.3583683840941
 30
0.0
  0
VERTEX
  5
54D
  8
0
 10
2200.018168113947
 20
1253.0255199146011
 30
0.0
  0
VERTEX
  5
54E
  8
0
 10
2200.1960179426042
 20
1253.7049532399631
 30
0.0
  0
SEQEND
  5
54F
  8
0
  0
POLYLINE
  5
21B
  8
0
 66
     1
 10
0.0
 20
0.0
 30
0.0
  0
VERTEX
  5
550
  8
0
 10
2200.1960179426042
 20
1253.7049532399631
 30
0.0
  0
VERTEX
  5
551
  8
0
 10
2200.6932199996049
 20
1256.2793607562589
 30
0.0
  0
VERTEX
  5
552
  8
0
 10
2201.2234524871228
 20
1258.8583639836149
 30
0.0
  0
VERTEX
  5
553
  8
0
 10
2201.7167531761788
 20
1261.441756939731
 30
0.0
  0
VERTEX
  5
554
  8
0
 10
2202.1745298521132
 20
1264.029333642306
 30
0.0
  0
VERTEX
  5
555
  8
0
 10
2202.5981903002639
 20
1266.6208881090431
 30
0.0
  0
VERTEX
  5
556
  8
0
 10
2202.9891423059698
 20
1269.216214357639
 30
0.0
  0
VERTEX
  5
557
  8
0
 10
2203.348793654573
 20
1271.8151064057949
 30
0.0
  0
VERTEX
  5
558
  8
0
 10
2203.67855213141
 20
1274.4173582712131
 30
0.0
  0
VERTEX
  5
559
  8
0
 10
2203.9798255218211
 20
1277.0227639715911
 30
0.0
  0
VERTEX
  5
55A
  8
0
 10
2204.2540216111461
 20
1279.631117524631
 30
0.0
  0
VERTEX
  5
55B
  8
0
 10
2204.5025481847242
 20
1282.2422129480319
 30
0.0
  0
VERTEX
  5
55C
  8
0
 10
2204.726813027894
 20
1284.855844259494
 30
0.0
  0
VERTEX
  5
55D
  8
0
 10
2204.928223925996
 20
1287.4718054767179
 30
0.0
  0
VERTEX
  5
55E
  8
0
 10
2205.1081886643678
 20
1290.0898906174041
 30
0.0
  0
VERTEX
  5
55F
  8
0
 10
2205.2681150283511
 20
1292.709893699252
 30
0.0
  0
VERTEX
  5
560
  8
0
 10
2205.409410803285
 20
1295.331608739963
 30
0.0
  0
VERTEX
  5
561
  8
0
 10
2205.5334837745072
 20
1297.954829757236
 30
0.0
  0
VERTEX
  5
562
  8
0
 10
2205.6417417273569
 20
1300.5793507687711
 30
0.0
  0
VERTEX
  5
563
  8
0
 10
2205.7355924471749
 20
1303.2049657922701
 30
0.0
  0
VERTEX
  5
564
  8
0
 10
2205.8164437193
 20
1305.831468845432
 30
0.0
  0
VERTEX
  5
565
  8
0
 10
2205.9447790618301
 20
1311.086315111545
 30
0.0
  0
VERTEX
  5
566
  8
0
 10
2206.0380100376601
 20
1316.3422417087129
 30
0.0
  0
VERTEX
  5
567
  8
0
 10
2206.107398929506
 20
1321.5976007785371
 30
0.0
  0
VERTEX
  5
568
  8
0
 10
2206.1642080200818
 20
1326.8507444626191
 30
0.0
  0
VERTEX
  5
569
  8
0
 10
2206.2851359282849
 20
1337.343794239963
 30
0.0
  0
SEQEND
  5
56A
  8
0
  0
LINE
  5
21C
  8
0
 10
1714.5399649282849
 20
1349.7821172399631
 30
0.0
 11
1714.3277049282849
 21
1337.343794239963
 31
0.0
  0
POLYLINE
  5
21D
  8
0
 66
     1
 10
0.0
 20
0.0
 30
0.0
  0
VERTEX
  5
56B
  8
0
 10
1714.5399649282849
 20
1349.7821172399631
 30
0.0
  0
VERTEX
  5
56C
  8
0
 10
1714.599684299207
 20
1352.0357012607651
 30
0.0
  0
VERTEX
  5
56D
  8
0
 10
1714.6650814122629
 20
1354.296046363407
 30
0.0
  0
VERTEX
  5
56E
  8
0
 10
1714.7367504553879
 20
1356.56268343637
 30
0.0
  0
VERTEX
  5
56F
  8
0
 10
1714.815285616517
 20
1358.8351433681371
 30
0.0
  0
VERTEX
  5
570
  8
0
 10
1714.901281083585
 20
1361.1129570471869
 30
0.0
  0
VERTEX
  5
571
  8
0
 10
1714.995331044526
 20
1363.395655362003
 30
0.0
  0
VERTEX
  5
572
  8
0
 10
1715.0980296872769
 20
1365.682769201065
 30
0.0
  0
VERTEX
  5
573
  8
0
 10
1715.152807948059
 20
1366.8278353448379
 30
0.0
  0
VERTEX
  5
574
  8
0
 10
1715.2099711997689
 20
1367.973829452854
 30
0.0
  0
VERTEX
  5
575
  8
0
 10
1715.269593715899
 20
1369.1206928861709
 30
0.0
  0
VERTEX
  5
576
  8
0
 10
1715.3317497699411
 20
1370.2683670058509
 30
0.0
  0
VERTEX
  5
577
  8
0
 10
1715.3965136353861
 20
1371.4167931729539
 30
0.0
  0
VERTEX
  5
578
  8
0
 10
1715.463959585725
 20
1372.5659127485389
 30
0.0
  0
VERTEX
  5
579
  8
0
 10
1715.5341618944519
 20
1373.7156670936661
 30
0.0
  0
VERTEX
  5
57A
  8
0
 10
1715.607194835058
 20
1374.8659975693961
 30
0.0
  0
VERTEX
  5
57B
  8
0
 10
1715.6831326810341
 20
1376.01684553679
 30
0.0
  0
VERTEX
  5
57C
  8
0
 10
1715.7620497058731
 20
1377.1681523569059
 30
0.0
  0
VERTEX
  5
57D
  8
0
 10
1715.844020183066
 20
1378.319859390806
 30
0.0
  0
VERTEX
  5
57E
  8
0
 10
1715.929118386106
 20
1379.4719079995491
 30
0.0
  0
VERTEX
  5
57F
  8
0
 10
1716.017418588483
 20
1380.6242395441959
 30
0.0
  0
VERTEX
  5
580
  8
0
 10
1716.108995063692
 20
1381.7767953858061
 30
0.0
  0
VERTEX
  5
581
  8
0
 10
1716.2039220852209
 20
1382.929516885441
 30
0.0
  0
VERTEX
  5
582
  8
0
 10
1716.302273926565
 20
1384.082345404159
 30
0.0
  0
VERTEX
  5
583
  8
0
 10
1716.4041248612129
 20
1385.2352223030209
 30
0.0
  0
VERTEX
  5
584
  8
0
 10
1716.5095491626601
 20
1386.388088943088
 30
0.0
  0
VERTEX
  5
585
  8
0
 10
1716.618621104396
 20
1387.5408866854191
 30
0.0
  0
VERTEX
  5
586
  8
0
 10
1716.7314149599131
 20
1388.693556891074
 30
0.0
  0
VERTEX
  5
587
  8
0
 10
1716.8480050027031
 20
1389.846040921115
 30
0.0
  0
VERTEX
  5
588
  8
0
 10
1716.9684655062581
 20
1390.9982801366
 30
0.0
  0
VERTEX
  5
589
  8
0
 10
1717.0928707440689
 20
1392.15021589859
 30
0.0
  0
VERTEX
  5
58A
  8
0
 10
1717.2212949896291
 20
1393.3017895681451
 30
0.0
  0
VERTEX
  5
58B
  8
0
 10
1717.35381251643
 20
1394.4529425063261
 30
0.0
  0
VERTEX
  5
58C
  8
0
 10
1717.490497597963
 20
1395.6036160741919
 30
0.0
  0
VERTEX
  5
58D
  8
0
 10
1717.6314245077201
 20
1396.753751632803
 30
0.0
  0
VERTEX
  5
58E
  8
0
 10
1717.7766675191931
 20
1397.90329054322
 30
0.0
  0
VERTEX
  5
58F
  8
0
 10
1717.9263009058741
 20
1399.0521741665029
 30
0.0
  0
VERTEX
  5
590
  8
0
 10
1718.080398941255
 20
1400.2003438637121
 30
0.0
  0
VERTEX
  5
591
  8
0
 10
1718.2390358988271
 20
1401.3477409959071
 30
0.0
  0
VERTEX
  5
592
  8
0
 10
1718.402286052084
 20
1402.4943069241481
 30
0.0
  0
VERTEX
  5
593
  8
0
 10
1718.5702236745151
 20
1403.6399830094961
 30
0.0
  0
VERTEX
  5
594
  8
0
 10
1718.7429230396131
 20
1404.78471061301
 30
0.0
  0
VERTEX
  5
595
  8
0
 10
1718.920458420871
 20
1405.928431095751
 30
0.0
  0
VERTEX
  5
596
  8
0
 10
1719.102904091779
 20
1407.0710858187781
 30
0.0
  0
VERTEX
  5
597
  8
0
 10
1719.2903343258299
 20
1408.2126161431529
 30
0.0
  0
VERTEX
  5
598
  8
0
 10
1719.4828233965161
 20
1409.352963429935
 30
0.0
  0
VERTEX
  5
599
  8
0
 10
1719.680445577329
 20
1410.4920690401841
 30
0.0
  0
VERTEX
  5
59A
  8
0
 10
1719.883275141759
 20
1411.62987433496
 30
0.0
  0
VERTEX
  5
59B
  8
0
 10
1720.0913863633
 20
1412.7663206753241
 30
0.0
  0
VERTEX
  5
59C
  8
0
 10
1720.304853515443
 20
1413.9013494223359
 30
0.0
  0
VERTEX
  5
59D
  8
0
 10
1720.52375087168
 20
1415.0349019370551
 30
0.0
  0
VERTEX
  5
59E
  8
0
 10
1720.7481527055029
 20
1416.166919580543
 30
0.0
  0
VERTEX
  5
59F
  8
0
 10
1720.9781332904031
 20
1417.297343713858
 30
0.0
  0
VERTEX
  5
5A0
  8
0
 10
1721.213766899873
 20
1418.4261156980619
 30
0.0
  0
VERTEX
  5
5A1
  8
0
 10
1721.455127807405
 20
1419.5531768942139
 30
0.0
  0
VERTEX
  5
5A2
  8
0
 10
1721.702290286489
 20
1420.678468663375
 30
0.0
  0
VERTEX
  5
5A3
  8
0
 10
1721.9553286106191
 20
1421.8019323666049
 30
0.0
  0
VERTEX
  5
5A4
  8
0
 10
1722.214317053285
 20
1422.9235093649629
 30
0.0
  0
VERTEX
  5
5A5
  8
0
 10
1722.4793298879799
 20
1424.0431410195099
 30
0.0
  0
VERTEX
  5
5A6
  8
0
 10
1722.7504413881959
 20
1425.1607686913071
 30
0.0
  0
VERTEX
  5
5A7
  8
0
 10
1723.027725827425
 20
1426.2763337414119
 30
0.0
  0
VERTEX
  5
5A8
  8
0
 10
1723.311257479158
 20
1427.3897775308869
 30
0.0
  0
VERTEX
  5
5A9
  8
0
 10
1723.6011106168869
 20
1428.5010414207909
 30
0.0
  0
VERTEX
  5
5AA
  8
0
 10
1723.897359514104
 20
1429.610066772186
 30
0.0
  0
VERTEX
  5
5AB
  8
0
 10
1724.2000784443021
 20
1430.71679494613
 30
0.0
  0
VERTEX
  5
5AC
  8
0
 10
1724.50934168097
 20
1431.821167303684
 30
0.0
  0
VERTEX
  5
5AD
  8
0
 10
1724.825223497603
 20
1432.923125205908
 30
0.0
  0
VERTEX
  5
5AE
  8
0
 10
1725.147798167691
 20
1434.022610013862
 30
0.0
  0
VERTEX
  5
5AF
  8
0
 10
1725.477139964727
 20
1435.119563088607
 30
0.0
  0
VERTEX
  5
5B0
  8
0
 10
1725.8133231622021
 20
1436.213925791202
 30
0.0
  0
VERTEX
  5
5B1
  8
0
 10
1726.1564220336079
 20
1437.3056394827081
 30
0.0
  0
VERTEX
  5
5B2
  8
0
 10
1726.506510852437
 20
1438.3946455241839
 30
0.0
  0
VERTEX
  5
5B3
  8
0
 10
1726.863663892181
 20
1439.4808852766921
 30
0.0
  0
VERTEX
  5
5B4
  8
0
 10
1727.2279554263321
 20
1440.5643001012911
 30
0.0
  0
VERTEX
  5
5B5
  8
0
 10
1727.5994597283809
 20
1441.6448313590411
 30
0.0
  0
VERTEX
  5
5B6
  8
0
 10
1727.9782510718201
 20
1442.7224204110021
 30
0.0
  0
VERTEX
  5
5B7
  8
0
 10
1728.3644037301419
 20
1443.7970086182349
 30
0.0
  0
VERTEX
  5
5B8
  8
0
 10
1728.7579919768391
 20
1444.8685373418
 30
0.0
  0
VERTEX
  5
5B9
  8
0
 10
1729.1590900854001
 20
1445.936947942756
 30
0.0
  0
VERTEX
  5
5BA
  8
0
 10
1729.56777232932
 20
1447.0021817821639
 30
0.0
  0
VERTEX
  5
5BB
  8
0
 10
1729.98411298209
 20
1448.0641802210851
 30
0.0
  0
VERTEX
  5
5BC
  8
0
 10
1730.4081863172009
 20
1449.1228846205779
 30
0.0
  0
VERTEX
  5
5BD
  8
0
 10
1730.8400666081459
 20
1450.178236341703
 30
0.0
  0
VERTEX
  5
5BE
  8
0
 10
1731.2798281284149
 20
1451.230176745521
 30
0.0
  0
VERTEX
  5
5BF
  8
0
 10
1731.7275451515029
 20
1452.278647193091
 30
0.0
  0
VERTEX
  5
5C0
  8
0
 10
1732.1832919508979
 20
1453.3235890454739
 30
0.0
  0
VERTEX
  5
5C1
  8
0
 10
1732.647142800095
 20
1454.3649436637299
 30
0.0
  0
VERTEX
  5
5C2
  8
0
 10
1733.119171972585
 20
1455.4026524089199
 30
0.0
  0
VERTEX
  5
5C3
  8
0
 10
1733.599453741859
 20
1456.436656642102
 30
0.0
  0
VERTEX
  5
5C4
  8
0
 10
1734.0880623814101
 20
1457.466897724338
 30
0.0
  0
VERTEX
  5
5C5
  8
0
 10
1734.5850721647289
 20
1458.4933170166869
 30
0.0
  0
VERTEX
  5
5C6
  8
0
 10
1735.0905573653081
 20
1459.51585588021
 30
0.0
  0
VERTEX
  5
5C7
  8
0
 10
1735.6045922566391
 20
1460.5344556759669
 30
0.0
  0
VERTEX
  5
5C8
  8
0
 10
1736.127251112214
 20
1461.549057765018
 30
0.0
  0
VERTEX
  5
5C9
  8
0
 10
1736.658608205526
 20
1462.559603508422
 30
0.0
  0
VERTEX
  5
5CA
  8
0
 10
1737.1987378100639
 20
1463.566034267242
 30
0.0
  0
VERTEX
  5
5CB
  8
0
 10
1737.747714199322
 20
1464.5682914025349
 30
0.0
  0
VERTEX
  5
5CC
  8
0
 10
1738.305611646791
 20
1465.5663162753631
 30
0.0
  0
VERTEX
  5
5CD
  8
0
 10
1738.8725044259629
 20
1466.560050246786
 30
0.0
  0
VERTEX
  5
5CE
  8
0
 10
1739.1593472754039
 20
1467.0552898198009
 30
0.0
  0
VERTEX
  5
5CF
  8
0
 10
1739.448466810331
 20
1467.549434677863
 30
0.0
  0
VERTEX
  5
5D0
  8
0
 10
1739.739872314929
 20
1468.0424774911039
 30
0.0
  0
VERTEX
  5
5D1
  8
0
 10
1740.033573073385
 20
1468.534410929655
 30
0.0
  0
VERTEX
  5
5D2
  8
0
 10
1740.3295783698859
 20
1469.0252276636511
 30
0.0
  0
VERTEX
  5
5D3
  8
0
 10
1740.6278974886179
 20
1469.5149203632229
 30
0.0
  0
VERTEX
  5
5D4
  8
0
 10
1740.928539713768
 20
1470.0034816985039
 30
0.0
  0
VERTEX
  5
5D5
  8
0
 10
1741.231514329522
 20
1470.490904339626
 30
0.0
  0
VERTEX
  5
5D6
  8
0
 10
1741.536830620066
 20
1470.9771809567219
 30
0.0
  0
VERTEX
  5
5D7
  8
0
 10
1741.8444978695879
 20
1471.4623042199239
 30
0.0
  0
VERTEX
  5
5D8
  8
0
 10
1742.1545253622739
 20
1471.946266799365
 30
0.0
  0
VERTEX
  5
5D9
  8
0
 10
1742.4669223823089
 20
1472.4290613651769
 30
0.0
  0
VERTEX
  5
5DA
  8
0
 10
1742.7816982138811
 20
1472.910680587494
 30
0.0
  0
VERTEX
  5
5DB
  8
0
 10
1743.0988621411759
 20
1473.3911171364471
 30
0.0
  0
VERTEX
  5
5DC
  8
0
 10
1743.4184234483801
 20
1473.870363682169
 30
0.0
  0
VERTEX
  5
5DD
  8
0
 10
1743.74039141968
 20
1474.3484128947921
 30
0.0
  0
VERTEX
  5
5DE
  8
0
 10
1744.064775339263
 20
1474.8252574444491
 30
0.0
  0
VERTEX
  5
5DF
  8
0
 10
1744.3915844913149
 20
1475.300890001273
 30
0.0
  0
VERTEX
  5
5E0
  8
0
 10
1744.7208281600219
 20
1475.775303235396
 30
0.0
  0
VERTEX
  5
5E1
  8
0
 10
1745.0525156295721
 20
1476.24848981695
 30
0.0
  0
VERTEX
  5
5E2
  8
0
 10
1745.3866561841501
 20
1476.7204424160691
 30
0.0
  0
VERTEX
  5
5E3
  8
0
 10
1745.7232591079421
 20
1477.1911537028841
 30
0.0
  0
VERTEX
  5
5E4
  8
0
 10
1746.0623336851361
 20
1477.660616347528
 30
0.0
  0
VERTEX
  5
5E5
  8
0
 10
1746.403889199918
 20
1478.128823020133
 30
0.0
  0
VERTEX
  5
5E6
  8
0
 10
1746.7479349364739
 20
1478.595766390833
 30
0.0
  0
VERTEX
  5
5E7
  8
0
 10
1747.094480178991
 20
1479.0614391297599
 30
0.0
  0
VERTEX
  5
5E8
  8
0
 10
1747.4435342116551
 20
1479.5258339070449
 30
0.0
  0
VERTEX
  5
5E9
  8
0
 10
1747.7951063186531
 20
1479.9889433928231
 30
0.0
  0
VERTEX
  5
5EA
  8
0
 10
1748.149205784171
 20
1480.4507602572239
 30
0.0
  0
VERTEX
  5
5EB
  8
0
 10
1748.5058418923959
 20
1480.9112771703819
 30
0.0
  0
VERTEX
  5
5EC
  8
0
 10
1748.865023927515
 20
1481.3704868024299
 30
0.0
  0
VERTEX
  5
5ED
  8
0
 10
1749.226761173712
 20
1481.8283818234991
 30
0.0
  0
VERTEX
  5
5EE
  8
0
 10
1749.591062915177
 20
1482.284954903723
 30
0.0
  0
VERTEX
  5
5EF
  8
0
 10
1749.9579384360941
 20
1482.740198713233
 30
0.0
  0
VERTEX
  5
5F0
  8
0
 10
1750.3273970206501
 20
1483.194105922162
 30
0.0
  0
VERTEX
  5
5F1
  8
0
 10
1750.6994479530319
 20
1483.6466692006441
 30
0.0
  0
VERTEX
  5
5F2
  8
0
 10
1751.074100517425
 20
1484.09788121881
 30
0.0
  0
VERTEX
  5
5F3
  8
0
 10
1751.4513639980171
 20
1484.5477346467931
 30
0.0
  0
VERTEX
  5
5F4
  8
0
 10
1751.8312476789949
 20
1484.9962221547239
 30
0.0
  0
VERTEX
  5
5F5
  8
0
 10
1752.2137608445439
 20
1485.4433364127381
 30
0.0
  0
VERTEX
  5
5F6
  8
0
 10
1752.5989127788509
 20
1485.8890700909669
 30
0.0
  0
VERTEX
  5
5F7
  8
0
 10
1752.986712766103
 20
1486.3334158595419
 30
0.0
  0
VERTEX
  5
5F8
  8
0
 10
1753.3771700904861
 20
1486.776366388596
 30
0.0
  0
VERTEX
  5
5F9
  8
0
 10
1753.770294036186
 20
1487.2179143482631
 30
0.0
  0
VERTEX
  5
5FA
  8
0
 10
1754.1660938873899
 20
1487.6580524086739
 30
0.0
  0
VERTEX
  5
5FB
  8
0
 10
1754.5645789282851
 20
1488.0967732399631
 30
0.0
  0
SEQEND
  5
5FC
  8
0
  0
POLYLINE
  5
21E
  8
0
 66
     1
 10
0.0
 20
0.0
 30
0.0
  0
VERTEX
  5
5FD
  8
0
 10
1754.5645789282851
 20
1488.0967732399631
 30
0.0
  0
VERTEX
  5
5FE
  8
0
 10
1755.0200552812109
 20
1488.570152191854
 30
0.0
  0
VERTEX
  5
5FF
  8
0
 10
1755.477834078047
 20
1489.040507088918
 30
0.0
  0
VERTEX
  5
600
  8
0
 10
1755.937901929786
 20
1489.5078410869919
 30
0.0
  0
VERTEX
  5
601
  8
0
 10
1756.400245447423
 20
1489.9721573419099
 30
0.0
  0
VERTEX
  5
602
  8
0
 10
1756.8648512419511
 20
1490.43345900951
 30
0.0
  0
VERTEX
  5
603
  8
0
 10
1757.331705924365
 20
1490.8917492456269
 30
0.0
  0
VERTEX
  5
604
  8
0
 10
1757.8007961056569
 20
1491.347031206097
 30
0.0
  0
VERTEX
  5
605
  8
0
 10
1758.272108396822
 20
1491.7993080467561
 30
0.0
  0
VERTEX
  5
606
  8
0
 10
1758.745629408852
 20
1492.2485829234399
 30
0.0
  0
VERTEX
  5
607
  8
0
 10
1759.221345752743
 20
1492.694858991985
 30
0.0
  0
VERTEX
  5
608
  8
0
 10
1759.699244039487
 20
1493.1381394082271
 30
0.0
  0
VERTEX
  5
609
  8
0
 10
1760.1793108800789
 20
1493.5784273280019
 30
0.0
  0
VERTEX
  5
60A
  8
0
 10
1760.661532885511
 20
1494.0157259071459
 30
0.0
  0
VERTEX
  5
60B
  8
0
 10
1761.145896666779
 20
1494.4500383014949
 30
0.0
  0
VERTEX
  5
60C
  8
0
 10
1761.6323888348761
 20
1494.8813676668849
 30
0.0
  0
VERTEX
  5
60D
  8
0
 10
1762.120996000795
 20
1495.3097171591519
 30
0.0
  0
VERTEX
  5
60E
  8
0
 10
1762.6117047755299
 20
1495.735089934132
 30
0.0
  0
VERTEX
  5
60F
  8
0
 10
1763.1045017700751
 20
1496.157489147661
 30
0.0
  0
VERTEX
  5
610
  8
0
 10
1763.599373595423
 20
1496.5769179555739
 30
0.0
  0
VERTEX
  5
611
  8
0
 10
1764.096306862569
 20
1496.993379513709
 30
0.0
  0
VERTEX
  5
612
  8
0
 10
1764.595288182506
 20
1497.4068769779001
 30
0.0
  0
VERTEX
  5
613
  8
0
 10
1765.096304166228
 20
1497.8174135039851
 30
0.0
  0
VERTEX
  5
614
  8
0
 10
1765.5993414247289
 20
1498.2249922477979
 30
0.0
  0
VERTEX
  5
615
  8
0
 10
1766.1043865690019
 20
1498.6296163651759
 30
0.0
  0
VERTEX
  5
616
  8
0
 10
1766.61142621004
 20
1499.0312890119551
 30
0.0
  0
VERTEX
  5
617
  8
0
 10
1767.120446958839
 20
1499.430013343971
 30
0.0
  0
VERTEX
  5
618
  8
0
 10
1767.631435426392
 20
1499.825792517059
 30
0.0
  0
VERTEX
  5
619
  8
0
 10
1768.1443782236911
 20
1500.2186296870559
 30
0.0
  0
VERTEX
  5
61A
  8
0
 10
1768.659261961732
 20
1500.608528009798
 30
0.0
  0
VERTEX
  5
61B
  8
0
 10
1769.1760732515079
 20
1500.995490641121
 30
0.0
  0
VERTEX
  5
61C
  8
0
 10
1769.6947987040121
 20
1501.379520736861
 30
0.0
  0
VERTEX
  5
61D
  8
0
 10
1770.215424930238
 20
1501.760621452853
 30
0.0
  0
VERTEX
  5
61E
  8
0
 10
1770.7379385411809
 20
1502.1387959449339
 30
0.0
  0
VERTEX
  5
61F
  8
0
 10
1771.2623261478329
 20
1502.5140473689401
 30
0.0
  0
VERTEX
  5
620
  8
0
 10
1771.788574361188
 20
1502.8863788807059
 30
0.0
  0
VERTEX
  5
621
  8
0
 10
1772.3166697922411
 20
1503.255793636069
 30
0.0
  0
VERTEX
  5
622
  8
0
 10
1772.8465990519851
 20
1503.622294790865
 30
0.0
  0
VERTEX
  5
623
  8
0
 10
1773.378348751414
 20
1503.985885500929
 30
0.0
  0
VERTEX
  5
624
  8
0
 10
1773.911905501521
 20
1504.346568922098
 30
0.0
  0
VERTEX
  5
625
  8
0
 10
1774.447255913301
 20
1504.7043482102081
 30
0.0
  0
VERTEX
  5
626
  8
0
 10
1774.9843865977459
 20
1505.0592265210939
 30
0.0
  0
VERTEX
  5
627
  8
0
 10
1775.523284165851
 20
1505.411207010593
 30
0.0
  0
VERTEX
  5
628
  8
0
 10
1776.06393522861
 20
1505.76029283454
 30
0.0
  0
VERTEX
  5
629
  8
0
 10
1776.6063263970159
 20
1506.106487148772
 30
0.0
  0
VERTEX
  5
62A
  8
0
 10
1777.1504442820631
 20
1506.449793109125
 30
0.0
  0
VERTEX
  5
62B
  8
0
 10
1777.696275494744
 20
1506.7902138714339
 30
0.0
  0
VERTEX
  5
62C
  8
0
 10
1778.2438066460541
 20
1507.127752591535
 30
0.0
  0
VERTEX
  5
62D
  8
0
 10
1778.7930243469859
 20
1507.462412425265
 30
0.0
  0
VERTEX
  5
62E
  8
0
 10
1779.3439152085341
 20
1507.7941965284599
 30
0.0
  0
VERTEX
  5
62F
  8
0
 10
1779.8964658416919
 20
1508.1231080569551
 30
0.0
  0
VERTEX
  5
630
  8
0
 10
1780.4506628574529
 20
1508.4491501665859
 30
0.0
  0
VERTEX
  5
631
  8
0
 10
1781.006492866811
 20
1508.77232601319
 30
0.0
  0
VERTEX
  5
632
  8
0
 10
1781.56394248076
 20
1509.0926387526031
 30
0.0
  0
VERTEX
  5
633
  8
0
 10
1782.122998310294
 20
1509.4100915406591
 30
0.0
  0
VERTEX
  5
634
  8
0
 10
1782.6836469664061
 20
1509.7246875331971
 30
0.0
  0
VERTEX
  5
635
  8
0
 10
1783.2458750600899
 20
1510.03642988605
 30
0.0
  0
VERTEX
  5
636
  8
0
 10
1783.80966920234
 20
1510.3453217550559
 30
0.0
  0
VERTEX
  5
637
  8
0
 10
1784.37501600415
 20
1510.6513662960499
 30
0.0
  0
VERTEX
  5
638
  8
0
 10
1784.9419020765131
 20
1510.9545666648689
 30
0.0
  0
VERTEX
  5
639
  8
0
 10
1785.5103140304241
 20
1511.254926017348
 30
0.0
  0
VERTEX
  5
63A
  8
0
 10
1786.080238476874
 20
1511.5524475093241
 30
0.0
  0
VERTEX
  5
63B
  8
0
 10
1786.6516620268601
 20
1511.8471342966311
 30
0.0
  0
VERTEX
  5
63C
  8
0
 10
1787.2245712913741
 20
1512.1389895351069
 30
0.0
  0
VERTEX
  5
63D
  8
0
 10
1787.7989528814101
 20
1512.4280163805879
 30
0.0
  0
VERTEX
  5
63E
  8
0
 10
1788.374793407962
 20
1512.7142179889081
 30
0.0
  0
VERTEX
  5
63F
  8
0
 10
1788.952079482023
 20
1512.997597515905
 30
0.0
  0
VERTEX
  5
640
  8
0
 10
1789.5307977145881
 20
1513.278158117414
 30
0.0
  0
VERTEX
  5
641
  8
0
 10
1790.1109347166489
 20
1513.5559029492711
 30
0.0
  0
VERTEX
  5
642
  8
0
 10
1790.6924770992021
 20
1513.8308351673129
 30
0.0
  0
VERTEX
  5
643
  8
0
 10
1791.275411473239
 20
1514.1029579273741
 30
0.0
  0
VERTEX
  5
644
  8
0
 10
1791.8597244497539
 20
1514.372274385292
 30
0.0
  0
VERTEX
  5
645
  8
0
 10
1792.4454026397409
 20
1514.638787696902
 30
0.0
  0
VERTEX
  5
646
  8
0
 10
1793.0324326541941
 20
1514.9025010180401
 30
0.0
  0
VERTEX
  5
647
  8
0
 10
1793.6208011041069
 20
1515.1634175045431
 30
0.0
  0
VERTEX
  5
648
  8
0
 10
1794.210494600472
 20
1515.421540312245
 30
0.0
  0
VERTEX
  5
649
  8
0
 10
1794.801499754285
 20
1515.6768725969839
 30
0.0
  0
VERTEX
  5
64A
  8
0
 10
1795.393803176539
 20
1515.9294175145949
 30
0.0
  0
VERTEX
  5
64B
  8
0
 10
1795.9873914782261
 20
1516.1791782209129
 30
0.0
  0
VERTEX
  5
64C
  8
0
 10
1796.582251270343
 20
1516.426157871776
 30
0.0
  0
VERTEX
  5
64D
  8
0
 10
1797.1783691638809
 20
1516.6703596230191
 30
0.0
  0
VERTEX
  5
64E
  8
0
 10
1797.775731769834
 20
1516.911786630478
 30
0.0
  0
VERTEX
  5
64F
  8
0
 10
1798.3743256991979
 20
1517.1504420499889
 30
0.0
  0
VERTEX
  5
650
  8
0
 10
1798.974137562964
 20
1517.3863290373879
 30
0.0
  0
VERTEX
  5
651
  8
0
 10
1799.5751539721271
 20
1517.6194507485111
 30
0.0
  0
VERTEX
  5
652
  8
0
 10
1800.177361537681
 20
1517.8498103391951
 30
0.0
  0
VERTEX
  5
653
  8
0
 10
1800.7807468706201
 20
1518.077410965273
 30
0.0
  0
VERTEX
  5
654
  8
0
 10
1801.385296581936
 20
1518.3022557825841
 30
0.0
  0
VERTEX
  5
655
  8
0
 10
1801.9909972826249
 20
1518.524347946963
 30
0.0
  0
VERTEX
  5
656
  8
0
 10
1802.5978355836789
 20
1518.7436906142459
 30
0.0
  0
VERTEX
  5
657
  8
0
 10
1803.2057980960919
 20
1518.960286940269
 30
0.0
  0
VERTEX
  5
658
  8
0
 10
1803.8148714308591
 20
1519.174140080868
 30
0.0
  0
VERTEX
  5
659
  8
0
 10
1804.4250421989721
 20
1519.3852531918781
 30
0.0
  0
VERTEX
  5
65A
  8
0
 10
1805.0362970114261
 20
1519.5936294291371
 30
0.0
  0
VERTEX
  5
65B
  8
0
 10
1805.6486224792141
 20
1519.7992719484789
 30
0.0
  0
VERTEX
  5
65C
  8
0
 10
1806.2620052133309
 20
1520.002183905741
 30
0.0
  0
VERTEX
  5
65D
  8
0
 10
1806.876431824769
 20
1520.2023684567589
 30
0.0
  0
VERTEX
  5
65E
  8
0
 10
1807.491888924523
 20
1520.3998287573691
 30
0.0
  0
VERTEX
  5
65F
  8
0
 10
1808.108363123587
 20
1520.5945679634069
 30
0.0
  0
VERTEX
  5
660
  8
0
 10
1808.725841032953
 20
1520.7865892307091
 30
0.0
  0
VERTEX
  5
661
  8
0
 10
1809.344309263616
 20
1520.97589571511
 30
0.0
  0
VERTEX
  5
662
  8
0
 10
1809.9637544265699
 20
1521.162490572447
 30
0.0
  0
VERTEX
  5
663
  8
0
 10
1810.5841631328069
 20
1521.346376958556
 30
0.0
  0
VERTEX
  5
664
  8
0
 10
1811.2055219933229
 20
1521.5275580292721
 30
0.0
  0
VERTEX
  5
665
  8
0
 10
1811.8278176191111
 20
1521.706036940433
 30
0.0
  0
VERTEX
  5
666
  8
0
 10
1812.451036621165
 20
1521.881816847872
 30
0.0
  0
VERTEX
  5
667
  8
0
 10
1813.0751656104769
 20
1522.054900907428
 30
0.0
  0
VERTEX
  5
668
  8
0
 10
1813.7001911980431
 20
1522.225292274936
 30
0.0
  0
VERTEX
  5
669
  8
0
 10
1814.326099994855
 20
1522.3929941062311
 30
0.0
  0
VERTEX
  5
66A
  8
0
 10
1814.9528786119081
 20
1522.558009557149
 30
0.0
  0
VERTEX
  5
66B
  8
0
 10
1815.580513660195
 20
1522.7203417835281
 30
0.0
  0
VERTEX
  5
66C
  8
0
 10
1816.2089917507101
 20
1522.879993941202
 30
0.0
  0
VERTEX
  5
66D
  8
0
 10
1816.838299494447
 20
1523.036969186008
 30
0.0
  0
VERTEX
  5
66E
  8
0
 10
1817.468423502399
 20
1523.191270673781
 30
0.0
  0
VERTEX
  5
66F
  8
0
 10
1818.0993503855609
 20
1523.3429015603581
 30
0.0
  0
VERTEX
  5
670
  8
0
 10
1818.731066754925
 20
1523.4918650015741
 30
0.0
  0
VERTEX
  5
671
  8
0
 10
1819.363559221486
 20
1523.638164153266
 30
0.0
  0
VERTEX
  5
672
  8
0
 10
1819.9968143962381
 20
1523.781802171269
 30
0.0
  0
VERTEX
  5
673
  8
0
 10
1820.6308188901739
 20
1523.9227822114201
 30
0.0
  0
VERTEX
  5
674
  8
0
 10
1821.265559314287
 20
1524.061107429555
 30
0.0
  0
VERTEX
  5
675
  8
0
 10
1821.901022279573
 20
1524.1967809815089
 30
0.0
  0
VERTEX
  5
676
  8
0
 10
1822.537194397024
 20
1524.3298060231191
 30
0.0
  0
VERTEX
  5
677
  8
0
 10
1823.1740622776331
 20
1524.46018571022
 30
0.0
  0
VERTEX
  5
678
  8
0
 10
1823.8116125323961
 20
1524.587923198648
 30
0.0
  0
VERTEX
  5
679
  8
0
 10
1824.449831772306
 20
1524.7130216442399
 30
0.0
  0
VERTEX
  5
67A
  8
0
 10
1825.088706608356
 20
1524.835484202832
 30
0.0
  0
VERTEX
  5
67B
  8
0
 10
1825.7282236515391
 20
1524.9553140302589
 30
0.0
  0
VERTEX
  5
67C
  8
0
 10
1826.368369512852
 20
1525.0725142823569
 30
0.0
  0
VERTEX
  5
67D
  8
0
 10
1827.009130803285
 20
1525.187088114963
 30
0.0
  0
VERTEX
  5
67E
  8
0
 10
1827.6504941338339
 20
1525.2990386839119
 30
0.0
  0
VERTEX
  5
67F
  8
0
 10
1828.2924461154921
 20
1525.4083691450401
 30
0.0
  0
VERTEX
  5
680
  8
0
 10
1828.934973359253
 20
1525.515082654184
 30
0.0
  0
VERTEX
  5
681
  8
0
 10
1829.5780624761101
 20
1525.6191823671791
 30
0.0
  0
VERTEX
  5
682
  8
0
 10
1830.2217000770579
 20
1525.720671439861
 30
0.0
  0
VERTEX
  5
683
  8
0
 10
1830.865872773089
 20
1525.819553028067
 30
0.0
  0
VERTEX
  5
684
  8
0
 10
1831.510567175199
 20
1525.9158302876319
 30
0.0
  0
VERTEX
  5
685
  8
0
 10
1832.15576989438
 20
1526.0095063743929
 30
0.0
  0
VERTEX
  5
686
  8
0
 10
1832.8014675416259
 20
1526.1005844441841
 30
0.0
  0
VERTEX
  5
687
  8
0
 10
1833.4476467279319
 20
1526.1890676528431
 30
0.0
  0
VERTEX
  5
688
  8
0
 10
1834.0942940642899
 20
1526.2749591562051
 30
0.0
  0
VERTEX
  5
689
  8
0
 10
1834.741396161694
 20
1526.358262110107
 30
0.0
  0
VERTEX
  5
68A
  8
0
 10
1835.3889396311399
 20
1526.4389796703831
 30
0.0
  0
VERTEX
  5
68B
  8
0
 10
1836.0369110836191
 20
1526.517114992871
 30
0.0
  0
VERTEX
  5
68C
  8
0
 10
1836.6852971301259
 20
1526.592671233406
 30
0.0
  0
VERTEX
  5
68D
  8
0
 10
1837.3340843816541
 20
1526.6656515478239
 30
0.0
  0
VERTEX
  5
68E
  8
0
 10
1837.983259449197
 20
1526.7360590919609
 30
0.0
  0
VERTEX
  5
68F
  8
0
 10
1838.63280894375
 20
1526.8038970216539
 30
0.0
  0
VERTEX
  5
690
  8
0
 10
1839.2827194763061
 20
1526.8691684927369
 30
0.0
  0
VERTEX
  5
691
  8
0
 10
1839.932977657857
 20
1526.9318766610479
 30
0.0
  0
VERTEX
  5
692
  8
0
 10
1840.5835700993989
 20
1526.992024682422
 30
0.0
  0
VERTEX
  5
693
  8
0
 10
1841.2344834119251
 20
1527.049615712695
 30
0.0
  0
VERTEX
  5
694
  8
0
 10
1841.885704206429
 20
1527.104652907703
 30
0.0
  0
VERTEX
  5
695
  8
0
 10
1842.537219093904
 20
1527.1571394232819
 30
0.0
  0
VERTEX
  5
696
  8
0
 10
1843.1890146853441
 20
1527.2070784152679
 30
0.0
  0
VERTEX
  5
697
  8
0
 10
1843.841077591743
 20
1527.254473039497
 30
0.0
  0
VERTEX
  5
698
  8
0
 10
1844.493394424095
 20
1527.299326451805
 30
0.0
  0
VERTEX
  5
699
  8
0
 10
1845.145951793394
 20
1527.341641808028
 30
0.0
  0
VERTEX
  5
69A
  8
0
 10
1845.798736310632
 20
1527.3814222640019
 30
0.0
  0
VERTEX
  5
69B
  8
0
 10
1846.4517345868039
 20
1527.4186709755641
 30
0.0
  0
VERTEX
  5
69C
  8
0
 10
1847.1049332329039
 20
1527.4533910985481
 30
0.0
  0
VERTEX
  5
69D
  8
0
 10
1847.7583188599251
 20
1527.485585788791
 30
0.0
  0
VERTEX
  5
69E
  8
0
 10
1848.4118780788619
 20
1527.515258202129
 30
0.0
  0
VERTEX
  5
69F
  8
0
 10
1849.0655975007071
 20
1527.542411494398
 30
0.0
  0
VERTEX
  5
6A0
  8
0
 10
1849.7194637364551
 20
1527.567048821433
 30
0.0
  0
VERTEX
  5
6A1
  8
0
 10
1850.3734633971001
 20
1527.589173339072
 30
0.0
  0
VERTEX
  5
6A2
  8
0
 10
1851.0275830936339
 20
1527.60878820315
 30
0.0
  0
VERTEX
  5
6A3
  8
0
 10
1851.6818094370531
 20
1527.6258965695019
 30
0.0
  0
VERTEX
  5
6A4
  8
0
 10
1852.3361290383491
 20
1527.6405015939661
 30
0.0
  0
VERTEX
  5
6A5
  8
0
 10
1852.990528508516
 20
1527.6526064323759
 30
0.0
  0
VERTEX
  5
6A6
  8
0
 10
1853.6449944585479
 20
1527.662214240569
 30
0.0
  0
VERTEX
  5
6A7
  8
0
 10
1854.2995134994389
 20
1527.669328174381
 30
0.0
  0
VERTEX
  5
6A8
  8
0
 10
1854.954072242183
 20
1527.673951389648
 30
0.0
  0
VERTEX
  5
6A9
  8
0
 10
1855.6086572977731
 20
1527.6760870422049
 30
0.0
  0
VERTEX
  5
6AA
  8
0
 10
1856.2632552772029
 20
1527.6757382878891
 30
0.0
  0
VERTEX
  5
6AB
  8
0
 10
1856.917852791466
 20
1527.6729082825359
 30
0.0
  0
VERTEX
  5
6AC
  8
0
 10
1857.5724364515579
 20
1527.6676001819819
 30
0.0
  0
VERTEX
  5
6AD
  8
0
 10
1858.22699286847
 20
1527.6598171420619
 30
0.0
  0
VERTEX
  5
6AE
  8
0
 10
1858.8815086531979
 20
1527.6495623186131
 30
0.0
  0
VERTEX
  5
6AF
  8
0
 10
1859.535970416734
 20
1527.6368388674709
 30
0.0
  0
VERTEX
  5
6B0
  8
0
 10
1860.1903647700731
 20
1527.621649944472
 30
0.0
  0
VERTEX
  5
6B1
  8
0
 10
1860.8446783242091
 20
1527.603998705451
 30
0.0
  0
VERTEX
  5
6B2
  8
0
 10
1861.4988976901341
 20
1527.5838883062449
 30
0.0
  0
VERTEX
  5
6B3
  8
0
 10
1862.153009478842
 20
1527.5613219026891
 30
0.0
  0
VERTEX
  5
6B4
  8
0
 10
1862.807000301329
 20
1527.5363026506211
 30
0.0
  0
VERTEX
  5
6B5
  8
0
 10
1863.4608567685859
 20
1527.5088337058751
 30
0.0
  0
VERTEX
  5
6B6
  8
0
 10
1864.114565491609
 20
1527.4789182242871
 30
0.0
  0
VERTEX
  5
6B7
  8
0
 10
1864.7681130813901
 20
1527.446559361694
 30
0.0
  0
VERTEX
  5
6B8
  8
0
 10
1865.421486148924
 20
1527.411760273932
 30
0.0
  0
VERTEX
  5
6B9
  8
0
 10
1866.074671305204
 20
1527.374524116836
 30
0.0
  0
VERTEX
  5
6BA
  8
0
 10
1866.7276551612231
 20
1527.3348540462421
 30
0.0
  0
VERTEX
  5
6BB
  8
0
 10
1867.3804243279769
 20
1527.2927532179881
 30
0.0
  0
VERTEX
  5
6BC
  8
0
 10
1868.032965416458
 20
1527.2482247879079
 30
0.0
  0
VERTEX
  5
6BD
  8
0
 10
1868.68526503766
 20
1527.2012719118379
 30
0.0
  0
VERTEX
  5
6BE
  8
0
 10
1869.337309802577
 20
1527.151897745614
 30
0.0
  0
VERTEX
  5
6BF
  8
0
 10
1869.9890863222031
 20
1527.100105445074
 30
0.0
  0
VERTEX
  5
6C0
  8
0
 10
1870.6405812075311
 20
1527.0458981660511
 30
0.0
  0
VERTEX
  5
6C1
  8
0
 10
1871.2917810695551
 20
1526.989279064383
 30
0.0
  0
VERTEX
  5
6C2
  8
0
 10
1871.9426725192691
 20
1526.9302512959059
 30
0.0
  0
VERTEX
  5
6C3
  8
0
 10
1872.5932421676659
 20
1526.868818016455
 30
0.0
  0
VERTEX
  5
6C4
  8
0
 10
1873.2434766257411
 20
1526.8049823818669
 30
0.0
  0
VERTEX
  5
6C5
  8
0
 10
1873.893362504487
 20
1526.738747547977
 30
0.0
  0
VERTEX
  5
6C6
  8
0
 10
1874.542886414898
 20
1526.6701166706209
 30
0.0
  0
VERTEX
  5
6C7
  8
0
 10
1875.1920349679681
 20
1526.5990929056361
 30
0.0
  0
VERTEX
  5
6C8
  8
0
 10
1875.84079477469
 20
1526.5256794088559
 30
0.0
  0
VERTEX
  5
6C9
  8
0
 10
1876.4891524460579
 20
1526.4498793361199
 30
0.0
  0
VERTEX
  5
6CA
  8
0
 10
1877.1370945930651
 20
1526.3716958432619
 30
0.0
  0
VERTEX
  5
6CB
  8
0
 10
1877.7846078267071
 20
1526.2911320861169
 30
0.0
  0
VERTEX
  5
6CC
  8
0
 10
1878.4316787579751
 20
1526.208191220524
 30
0.0
  0
VERTEX
  5
6CD
  8
0
 10
1879.0782939978651
 20
1526.122876402316
 30
0.0
  0
VERTEX
  5
6CE
  8
0
 10
1879.7244401573689
 20
1526.035190787331
 30
0.0
  0
VERTEX
  5
6CF
  8
0
 10
1880.3701038474819
 20
1525.945137531404
 30
0.0
  0
VERTEX
  5
6D0
  8
0
 10
1881.0152716791979
 20
1525.8527197903711
 30
0.0
  0
VERTEX
  5
6D1
  8
0
 10
1881.6599302635091
 20
1525.757940720069
 30
0.0
  0
VERTEX
  5
6D2
  8
0
 10
1882.3040662114099
 20
1525.6608034763331
 30
0.0
  0
VERTEX
  5
6D3
  8
0
 10
1882.9476661338949
 20
1525.561311214999
 30
0.0
  0
VERTEX
  5
6D4
  8
0
 10
1883.590716641957
 20
1525.459467091903
 30
0.0
  0
VERTEX
  5
6D5
  8
0
 10
1884.233204346589
 20
1525.355274262881
 30
0.0
  0
VERTEX
  5
6D6
  8
0
 10
1884.875115858787
 20
1525.24873588377
 30
0.0
  0
VERTEX
  5
6D7
  8
0
 10
1885.516437789543
 20
1525.1398551104051
 30
0.0
  0
VERTEX
  5
6D8
  8
0
 10
1886.1571567498511
 20
1525.028635098621
 30
0.0
  0
VERTEX
  5
6D9
  8
0
 10
1886.7972593507061
 20
1524.9150790042561
 30
0.0
  0
VERTEX
  5
6DA
  8
0
 10
1887.4367322030989
 20
1524.799189983145
 30
0.0
  0
VERTEX
  5
6DB
  8
0
 10
1888.075561918027
 20
1524.6809711911251
 30
0.0
  0
VERTEX
  5
6DC
  8
0
 10
1888.713735106481
 20
1524.56042578403
 30
0.0
  0
VERTEX
  5
6DD
  8
0
 10
1889.3512383794571
 20
1524.4375569176971
 30
0.0
  0
VERTEX
  5
6DE
  8
0
 10
1889.9880583479469
 20
1524.3123677479621
 30
0.0
  0
VERTEX
  5
6DF
  8
0
 10
1890.624181622946
 20
1524.1848614306621
 30
0.0
  0
VERTEX
  5
6E0
  8
0
 10
1891.259594815446
 20
1524.0550411216309
 30
0.0
  0
VERTEX
  5
6E1
  8
0
 10
1891.8942845364429
 20
1523.9229099767069
 30
0.0
  0
VERTEX
  5
6E2
  8
0
 10
1892.5282373969289
 20
1523.788471151724
 30
0.0
  0
VERTEX
  5
6E3
  8
0
 10
1893.161440007899
 20
1523.651727802519
 30
0.0
  0
VERTEX
  5
6E4
  8
0
 10
1893.7938789803461
 20
1523.512683084929
 30
0.0
  0
VERTEX
  5
6E5
  8
0
 10
1894.425540925263
 20
1523.371340154788
 30
0.0
  0
VERTEX
  5
6E6
  8
0
 10
1895.0564124536461
 20
1523.2277021679331
 30
0.0
  0
VERTEX
  5
6E7
  8
0
 10
1895.6864801764871
 20
1523.081772280201
 30
0.0
  0
VERTEX
  5
6E8
  8
0
 10
1896.3157307047791
 20
1522.9335536474259
 30
0.0
  0
VERTEX
  5
6E9
  8
0
 10
1896.944150649518
 20
1522.7830494254449
 30
0.0
  0
VERTEX
  5
6EA
  8
0
 10
1897.5717266216971
 20
1522.6302627700941
 30
0.0
  0
VERTEX
  5
6EB
  8
0
 10
1898.1984452323079
 20
1522.4751968372079
 30
0.0
  0
VERTEX
  5
6EC
  8
0
 10
1898.824293092347
 20
1522.3178547826251
 30
0.0
  0
VERTEX
  5
6ED
  8
0
 10
1899.4492568128071
 20
1522.1582397621801
 30
0.0
  0
VERTEX
  5
6EE
  8
0
 10
1900.0733230046801
 20
1521.9963549317081
 30
0.0
  0
VERTEX
  5
6EF
  8
0
 10
1900.696478278963
 20
1521.8322034470459
 30
0.0
  0
VERTEX
  5
6F0
  8
0
 10
1901.3187092466469
 20
1521.6657884640299
 30
0.0
  0
VERTEX
  5
6F1
  8
0
 10
1901.9400025187281
 20
1521.4971131384959
 30
0.0
  0
VERTEX
  5
6F2
  8
0
 10
1902.5603447061969
 20
1521.326180626279
 30
0.0
  0
VERTEX
  5
6F3
  8
0
 10
1903.17972242005
 20
1521.1529940832161
 30
0.0
  0
VERTEX
  5
6F4
  8
0
 10
1903.7981222712799
 20
1520.9775566651431
 30
0.0
  0
VERTEX
  5
6F5
  8
0
 10
1904.415530870881
 20
1520.7998715278959
 30
0.0
  0
VERTEX
  5
6F6
  8
0
 10
1905.0319348298469
 20
1520.6199418273111
 30
0.0
  0
VERTEX
  5
6F7
  8
0
 10
1905.64732075917
 20
1520.437770719223
 30
0.0
  0
VERTEX
  5
6F8
  8
0
 10
1906.2616752698459
 20
1520.253361359469
 30
0.0
  0
VERTEX
  5
6F9
  8
0
 10
1906.874984972867
 20
1520.0667169038841
 30
0.0
  0
VERTEX
  5
6FA
  8
0
 10
1907.4872364792279
 20
1519.8778405083051
 30
0.0
  0
VERTEX
  5
6FB
  8
0
 10
1908.0984163999219
 20
1519.6867353285679
 30
0.0
  0
VERTEX
  5
6FC
  8
0
 10
1908.708511345943
 20
1519.4934045205091
 30
0.0
  0
VERTEX
  5
6FD
  8
0
 10
1909.3175079282851
 20
1519.2978512399629
 30
0.0
  0
SEQEND
  5
6FE
  8
0
  0
POLYLINE
  5
21F
  8
0
 66
     1
 10
0.0
 20
0.0
 30
0.0
  0
VERTEX
  5
6FF
  8
0
 10
1909.3175079282851
 20
1519.2978512399629
 30
0.0
  0
VERTEX
  5
700
  8
0
 10
1910.92509601436
 20
1518.794173186237
 30
0.0
  0
VERTEX
  5
701
  8
0
 10
1912.5226683346571
 20
1518.2716666255831
 30
0.0
  0
VERTEX
  5
702
  8
0
 10
1914.1104384510361
 20
1517.730766990039
 30
0.0
  0
VERTEX
  5
703
  8
0
 10
1915.6886199253549
 20
1517.171909711642
 30
0.0
  0
VERTEX
  5
704
  8
0
 10
1917.2574263194749
 20
1516.5955302224299
 30
0.0
  0
VERTEX
  5
705
  8
0
 10
1918.817071195253
 20
1516.00206395444
 30
0.0
  0
VERTEX
  5
706
  8
0
 10
1920.3677681145491
 20
1515.3919463397101
 30
0.0
  0
VERTEX
  5
707
  8
0
 10
1921.9097306392221
 20
1514.7656128102749
 30
0.0
  0
VERTEX
  5
708
  8
0
 10
1923.443172331132
 20
1514.123498798175
 30
0.0
  0
VERTEX
  5
709
  8
0
 10
1924.968306752138
 20
1513.466039735446
 30
0.0
  0
VERTEX
  5
70A
  8
0
 10
1926.485347464097
 20
1512.793671054126
 30
0.0
  0
VERTEX
  5
70B
  8
0
 10
1927.994508028871
 20
1512.106828186252
 30
0.0
  0
VERTEX
  5
70C
  8
0
 10
1929.496002008317
 20
1511.4059465638611
 30
0.0
  0
VERTEX
  5
70D
  8
0
 10
1930.990042964296
 20
1510.6914616189911
 30
0.0
  0
VERTEX
  5
70E
  8
0
 10
1932.476844458665
 20
1509.963808783679
 30
0.0
  0
VERTEX
  5
70F
  8
0
 10
1933.956620053285
 20
1509.2234234899629
 30
0.0
  0
VERTEX
  5
710
  8
0
 10
1935.4295833100141
 20
1508.4707411698789
 30
0.0
  0
VERTEX
  5
711
  8
0
 10
1936.8959477907119
 20
1507.7061972554659
 30
0.0
  0
VERTEX
  5
712
  8
0
 10
1938.3559270572371
 20
1506.9302271787601
 30
0.0
  0
VERTEX
  5
713
  8
0
 10
1939.809734671449
 20
1506.143266371799
 30
0.0
  0
VERTEX
  5
714
  8
0
 10
1941.2575841952071
 20
1505.3457502666199
 30
0.0
  0
VERTEX
  5
715
  8
0
 10
1942.69968919037
 20
1504.538114295261
 30
0.0
  0
VERTEX
  5
716
  8
0
 10
1944.136263218797
 20
1503.7207938897579
 30
0.0
  0
VERTEX
  5
717
  8
0
 10
1945.5675198423471
 20
1502.8942244821501
 30
0.0
  0
VERTEX
  5
718
  8
0
 10
1946.99367262288
 20
1502.058841504474
 30
0.0
  0
VERTEX
  5
719
  8
0
 10
1948.414935122255
 20
1501.215080388766
 30
0.0
  0
VERTEX
  5
71A
  8
0
 10
1949.8315209023301
 20
1500.363376567065
 30
0.0
  0
VERTEX
  5
71B
  8
0
 10
1951.2436435249649
 20
1499.504165471408
 30
0.0
  0
VERTEX
  5
71C
  8
0
 10
1952.6515165520191
 20
1498.637882533832
 30
0.0
  0
VERTEX
  5
71D
  8
0
 10
1954.05535354535
 20
1497.764963186374
 30
0.0
  0
VERTEX
  5
71E
  8
0
 10
1955.4553680668189
 20
1496.885842861072
 30
0.0
  0
VERTEX
  5
71F
  8
0
 10
1956.8517736782851
 20
1496.000956989963
 30
0.0
  0
VERTEX
  5
720
  8
0
 10
1958.2447839416061
 20
1495.110741005084
 30
0.0
  0
VERTEX
  5
721
  8
0
 10
1959.6346124186421
 20
1494.2156303384729
 30
0.0
  0
VERTEX
  5
722
  8
0
 10
1962.4055782612929
 20
1492.4124666882051
 30
0.0
  0
VERTEX
  5
723
  8
0
 10
1965.166379701112
 20
1490.5949494954559
 30
0.0
  0
VERTEX
  5
724
  8
0
 10
1967.9187252329721
 20
1488.766562216525
 30
0.0
  0
VERTEX
  5
725
  8
0
 10
1970.664323351747
 20
1486.930788307712
 30
0.0
  0
VERTEX
  5
726
  8
0
 10
1973.404882552308
 20
1485.0911112253141
 30
0.0
  0
VERTEX
  5
727
  8
0
 10
1978.877718178285
 20
1481.4139813649631
 30
0.0
  0
VERTEX
  5
728
  8
0
 10
1981.613411593446
 20
1479.583495499606
 30
0.0
  0
VERTEX
  5
729
  8
0
 10
1984.3509000698859
 20
1477.7630402858611
 30
0.0
  0
VERTEX
  5
72A
  8
0
 10
1987.0918921024791
 20
1475.9560991800261
 30
0.0
  0
VERTEX
  5
72B
  8
0
 10
1989.8380961860969
 20
1474.1661556383999
 30
0.0
  0
VERTEX
  5
72C
  8
0
 10
1991.2136866516889
 20
1473.278646534259
 30
0.0
  0
VERTEX
  5
72D
  8
0
 10
1992.591220815614
 20
1472.396693117282
 30
0.0
  0
VERTEX
  5
72E
  8
0
 10
1993.9709122397319
 20
1471.520730819507
 30
0.0
  0
VERTEX
  5
72F
  8
0
 10
1995.352974485902
 20
1470.6511950729709
 30
0.0
  0
VERTEX
  5
730
  8
0
 10
1996.7376211159831
 20
1469.7885213097111
 30
0.0
  0
VERTEX
  5
731
  8
0
 10
1998.1250656918351
 20
1468.933144961765
 30
0.0
  0
VERTEX
  5
732
  8
0
 10
1999.5155217753161
 20
1468.0855014611691
 30
0.0
  0
VERTEX
  5
733
  8
0
 10
2000.9092029282849
 20
1467.2460262399629
 30
0.0
  0
SEQEND
  5
734
  8
0
  0
POLYLINE
  5
220
  8
0
 66
     1
 10
0.0
 20
0.0
 30
0.0
  0
VERTEX
  5
735
  8
0
 10
2000.9092029282849
 20
1467.2460262399629
 30
0.0
  0
VERTEX
  5
736
  8
0
 10
2001.6597352846161
 20
1466.7728856888691
 30
0.0
  0
VERTEX
  5
737
  8
0
 10
2002.417148468385
 20
1466.307120246249
 30
0.0
  0
VERTEX
  5
738
  8
0
 10
2003.1812721205081
 20
1465.8489283218489
 30
0.0
  0
VERTEX
  5
739
  8
0
 10
2003.951935881898
 20
1465.398508325412
 30
0.0
  0
VERTEX
  5
73A
  8
0
 10
2004.728969393472
 20
1464.9560586666821
 30
0.0
  0
VERTEX
  5
73B
  8
0
 10
2005.5122022961441
 20
1464.5217777554051
 30
0.0
  0
VERTEX
  5
73C
  8
0
 10
2006.301464230829
 20
1464.095864001323
 30
0.0
  0
VERTEX
  5
73D
  8
0
 10
2007.096584838441
 20
1463.678515814182
 30
0.0
  0
VERTEX
  5
73E
  8
0
 10
2007.8973937598971
 20
1463.2699316037249
 30
0.0
  0
VERTEX
  5
73F
  8
0
 10
2008.7037206361099
 20
1462.870309779697
 30
0.0
  0
VERTEX
  5
740
  8
0
 10
2009.515395107996
 20
1462.4798487518419
 30
0.0
  0
VERTEX
  5
741
  8
0
 10
2010.332246816469
 20
1462.0987469299041
 30
0.0
  0
VERTEX
  5
742
  8
0
 10
2011.1541054024451
 20
1461.7272027236279
 30
0.0
  0
VERTEX
  5
743
  8
0
 10
2011.980800506838
 20
1461.3654145427579
 30
0.0
  0
VERTEX
  5
744
  8
0
 10
2012.8121617705631
 20
1461.013580797038
 30
0.0
  0
VERTEX
  5
745
  8
0
 10
2013.6480188345349
 20
1460.6718998962131
 30
0.0
  0
VERTEX
  5
746
  8
0
 10
2014.48820133967
 20
1460.3405702500261
 30
0.0
  0
VERTEX
  5
747
  8
0
 10
2015.3325389268821
 20
1460.0197902682221
 30
0.0
  0
VERTEX
  5
748
  8
0
 10
2016.1808612370851
 20
1459.709758360545
 30
0.0
  0
VERTEX
  5
749
  8
0
 10
2017.032997911195
 20
1459.41067293674
 30
0.0
  0
VERTEX
  5
74A
  8
0
 10
2017.8887785901279
 20
1459.122732406551
 30
0.0
  0
VERTEX
  5
74B
  8
0
 10
2018.7480329147961
 20
1458.8461351797209
 30
0.0
  0
VERTEX
  5
74C
  8
0
 10
2019.610590526117
 20
1458.581079665996
 30
0.0
  0
VERTEX
  5
74D
  8
0
 10
2020.4762810650041
 20
1458.3277642751191
 30
0.0
  0
VERTEX
  5
74E
  8
0
 10
2021.3449341723719
 20
1458.0863874168349
 30
0.0
  0
VERTEX
  5
74F
  8
0
 10
2022.2163794891369
 20
1457.857147500888
 30
0.0
  0
VERTEX
  5
750
  8
0
 10
2023.090446656214
 20
1457.6402429370221
 30
0.0
  0
VERTEX
  5
751
  8
0
 10
2023.9669653145161
 20
1457.435872134982
 30
0.0
  0
VERTEX
  5
752
  8
0
 10
2024.8457651049589
 20
1457.2442335045121
 30
0.0
  0
VERTEX
  5
753
  8
0
 10
2025.7266756684589
 20
1457.065525455356
 30
0.0
  0
VERTEX
  5
754
  8
0
 10
2026.609526645929
 20
1456.899946397258
 30
0.0
  0
VERTEX
  5
755
  8
0
 10
2027.4941476782849
 20
1456.747694739963
 30
0.0
  0
VERTEX
  5
756
  8
0
 10
2028.3803684064419
 20
1456.6089688932141
 30
0.0
  0
VERTEX
  5
757
  8
0
 10
2029.2680184713149
 20
1456.483967266757
 30
0.0
  0
VERTEX
  5
758
  8
0
 10
2030.1569275138179
 20
1456.3728882703349
 30
0.0
  0
VERTEX
  5
759
  8
0
 10
2031.046925174868
 20
1456.2759303136929
 30
0.0
  0
VERTEX
  5
75A
  8
0
 10
2031.9378410953771
 20
1456.193291806575
 30
0.0
  0
VERTEX
  5
75B
  8
0
 10
2032.8295049162609
 20
1456.1251711587249
 30
0.0
  0
VERTEX
  5
75C
  8
0
 10
2033.7217462784361
 20
1456.071766779887
 30
0.0
  0
VERTEX
  5
75D
  8
0
 10
2034.6143948228171
 20
1456.0332770798061
 30
0.0
  0
VERTEX
  5
75E
  8
0
 10
2035.507280190317
 20
1456.009900468227
 30
0.0
  0
VERTEX
  5
75F
  8
0
 10
2036.4002320218519
 20
1456.0018353548919
 30
0.0
  0
VERTEX
  5
760
  8
0
 10
2037.2930799583371
 20
1456.0092801495471
 30
0.0
  0
VERTEX
  5
761
  8
0
 10
2038.1856536406881
 20
1456.0324332619359
 30
0.0
  0
VERTEX
  5
762
  8
0
 10
2039.0777827098179
 20
1456.0714931018019
 30
0.0
  0
VERTEX
  5
763
  8
0
 10
2039.969296806642
 20
1456.1266580788911
 30
0.0
  0
VERTEX
  5
764
  8
0
 10
2040.860025572076
 20
1456.1981266029461
 30
0.0
  0
VERTEX
  5
765
  8
0
 10
2041.749798647035
 20
1456.286097083713
 30
0.0
  0
VERTEX
  5
766
  8
0
 10
2042.638445672434
 20
1456.3907679309341
 30
0.0
  0
VERTEX
  5
767
  8
0
 10
2043.525796289186
 20
1456.5123375543551
 30
0.0
  0
VERTEX
  5
768
  8
0
 10
2044.4116801382081
 20
1456.651004363719
 30
0.0
  0
VERTEX
  5
769
  8
0
 10
2045.2959268604141
 20
1456.806966768771
 30
0.0
  0
VERTEX
  5
76A
  8
0
 10
2046.1783660967189
 20
1456.980423179255
 30
0.0
  0
VERTEX
  5
76B
  8
0
 10
2047.0588274880381
 20
1457.171572004916
 30
0.0
  0
VERTEX
  5
76C
  8
0
 10
2047.9371406752871
 20
1457.3806116554979
 30
0.0
  0
VERTEX
  5
76D
  8
0
 10
2048.8131352993792
 20
1457.6077405407441
 30
0.0
  0
VERTEX
  5
76E
  8
0
 10
2049.6866410012299
 20
1457.853157070399
 30
0.0
  0
VERTEX
  5
76F
  8
0
 10
2050.5574874217541
 20
1458.1170596542081
 30
0.0
  0
VERTEX
  5
770
  8
0
 10
2051.4255042018672
 20
1458.3996467019149
 30
0.0
  0
VERTEX
  5
771
  8
0
 10
2052.2905209824839
 20
1458.701116623263
 30
0.0
  0
VERTEX
  5
772
  8
0
 10
2053.1523674045202
 20
1459.021667827998
 30
0.0
  0
VERTEX
  5
773
  8
0
 10
2054.0158963750032
 20
1459.346541917251
 30
0.0
  0
VERTEX
  5
774
  8
0
 10
2054.859676206107
 20
1459.6553121947329
 30
0.0
  0
VERTEX
  5
775
  8
0
 10
2055.774706937329
 20
1460.0068708793251
 30
0.0
  0
SEQEND
  5
776
  8
0
  0
POLYLINE
  5
221
  8
0
 66
     1
 10
0.0
 20
0.0
 30
0.0
  0
VERTEX
  5
777
  8
0
 10
2055.774706937329
 20
1460.0068708793251
 30
0.0
  0
VERTEX
  5
778
  8
0
 10
2057.035911224461
 20
1460.490348604862
 30
0.0
  0
VERTEX
  5
779
  8
0
 10
2058.3406196625692
 20
1460.972683270267
 30
0.0
  0
VERTEX
  5
77A
  8
0
 10
2059.652576586911
 20
1461.424551357986
 30
0.0
  0
VERTEX
  5
77B
  8
0
 10
2060.9647674509902
 20
1461.8857543925501
 30
0.0
  0
VERTEX
  5
77C
  8
0
 10
2062.277248931005
 20
1462.355582047813
 30
0.0
  0
VERTEX
  5
77D
  8
0
 10
2063.590077703157
 20
1462.833323997623
 30
0.0
  0
VERTEX
  5
77E
  8
0
 10
2064.9033104436462
 20
1463.3182699158319
 30
0.0
  0
VERTEX
  5
77F
  8
0
 10
2066.2170038286758
 20
1463.8097094762909
 30
0.0
  0
VERTEX
  5
780
  8
0
 10
2067.5312145344442
 20
1464.3069323528509
 30
0.0
  0
VERTEX
  5
781
  8
0
 10
2068.845999237154
 20
1464.8092282193629
 30
0.0
  0
VERTEX
  5
782
  8
0
 10
2070.1614146130041
 20
1465.3158867496791
 30
0.0
  0
VERTEX
  5
783
  8
0
 10
2071.4775173381968
 20
1465.8261976176479
 30
0.0
  0
VERTEX
  5
784
  8
0
 10
2074.1120115414142
 20
1466.8549350619539
 30
0.0
  0
VERTEX
  5
785
  8
0
 10
2076.74993525641
 20
1467.8897579430879
 30
0.0
  0
VERTEX
  5
786
  8
0
 10
2079.3917418927931
 20
1468.9249836518579
 30
0.0
  0
VERTEX
  5
787
  8
0
 10
2082.0378848601699
 20
1469.9549295790739
 30
0.0
  0
VERTEX
  5
788
  8
0
 10
2083.3627241584832
 20
1470.4661468092261
 30
0.0
  0
VERTEX
  5
789
  8
0
 10
2084.688817568147
 20
1470.9739131155429
 30
0.0
  0
VERTEX
  5
78A
  8
0
 10
2086.0162217653642
 20
1471.477518171874
 30
0.0
  0
VERTEX
  5
78B
  8
0
 10
2087.3449934263331
 20
1471.9762516520721
 30
0.0
  0
VERTEX
  5
78C
  8
0
 10
2088.675189227255
 20
1472.4694032299869
 30
0.0
  0
VERTEX
  5
78D
  8
0
 10
2090.0068658443311
 20
1472.9562625794711
 30
0.0
  0
VERTEX
  5
78E
  8
0
 10
2091.340079953764
 20
1473.4361193743739
 30
0.0
  0
VERTEX
  5
78F
  8
0
 10
2092.674888231752
 20
1473.908263288547
 30
0.0
  0
VERTEX
  5
790
  8
0
 10
2094.011347354498
 20
1474.371983995841
 30
0.0
  0
VERTEX
  5
791
  8
0
 10
2095.349513998201
 20
1474.8265711701081
 30
0.0
  0
VERTEX
  5
792
  8
0
 10
2096.6894448390631
 20
1475.271314485198
 30
0.0
  0
VERTEX
  5
793
  8
0
 10
2098.0311965532851
 20
1475.7055036149629
 30
0.0
  0
VERTEX
  5
794
  8
0
 10
2099.3748258170681
 20
1476.1284282332531
 30
0.0
  0
VERTEX
  5
795
  8
0
 10
2100.7203893066121
 20
1476.5393780139191
 30
0.0
  0
VERTEX
  5
796
  8
0
 10
2102.0679436981181
 20
1476.9376426308129
 30
0.0
  0
VERTEX
  5
797
  8
0
 10
2103.4175456677872
 20
1477.3225117577849
 30
0.0
  0
VERTEX
  5
798
  8
0
 10
2104.0931322057459
 20
1477.509701035629
 30
0.0
  0
VERTEX
  5
799
  8
0
 10
2104.7692518918211
 20
1477.6932750686869
 30
0.0
  0
VERTEX
  5
79A
  8
0
 10
2105.4459118105369
 20
1477.873145066189
 30
0.0
  0
VERTEX
  5
79B
  8
0
 10
2106.1231190464191
 20
1478.0492222373689
 30
0.0
  0
VERTEX
  5
79C
  8
0
 10
2106.800880683993
 20
1478.2214177914559
 30
0.0
  0
VERTEX
  5
79D
  8
0
 10
2107.4792038077831
 20
1478.3896429376821
 30
0.0
  0
VERTEX
  5
79E
  8
0
 10
2108.1580955023142
 20
1478.5538088852791
 30
0.0
  0
VERTEX
  5
79F
  8
0
 10
2108.8375628521139
 20
1478.713826843478
 30
0.0
  0
VERTEX
  5
7A0
  8
0
 10
2109.5176129417041
 20
1478.8696080215111
 30
0.0
  0
VERTEX
  5
7A1
  8
0
 10
2110.1982528556118
 20
1479.0210636286081
 30
0.0
  0
VERTEX
  5
7A2
  8
0
 10
2110.8794896783611
 20
1479.1681048740011
 30
0.0
  0
VERTEX
  5
7A3
  8
0
 10
2111.5613304944782
 20
1479.3106429669219
 30
0.0
  0
VERTEX
  5
7A4
  8
0
 10
2112.243782388487
 20
1479.4485891166021
 30
0.0
  0
VERTEX
  5
7A5
  8
0
 10
2112.9268524449139
 20
1479.581854532272
 30
0.0
  0
VERTEX
  5
7A6
  8
0
 10
2113.6105477482829
 20
1479.7103504231629
 30
0.0
  0
VERTEX
  5
7A7
  8
0
 10
2114.2948753831188
 20
1479.8339879985081
 30
0.0
  0
VERTEX
  5
7A8
  8
0
 10
2114.9798424339492
 20
1479.952678467537
 30
0.0
  0
VERTEX
  5
7A9
  8
0
 10
2115.6654559852959
 20
1480.0663330394809
 30
0.0
  0
VERTEX
  5
7AA
  8
0
 10
2116.3517231216861
 20
1480.1748629235731
 30
0.0
  0
VERTEX
  5
7AB
  8
0
 10
2117.038650927645
 20
1480.278179329044
 30
0.0
  0
VERTEX
  5
7AC
  8
0
 10
2117.7262464876958
 20
1480.3761934651241
 30
0.0
  0
VERTEX
  5
7AD
  8
0
 10
2118.4145168863661
 20
1480.468816541045
 30
0.0
  0
VERTEX
  5
7AE
  8
0
 10
2119.103469208178
 20
1480.555959766039
 30
0.0
  0
VERTEX
  5
7AF
  8
0
 10
2119.7931105376601
 20
1480.637534349338
 30
0.0
  0
VERTEX
  5
7B0
  8
0
 10
2120.4834479593351
 20
1480.7134515001719
 30
0.0
  0
VERTEX
  5
7B1
  8
0
 10
2121.1744885577291
 20
1480.7836224277719
 30
0.0
  0
VERTEX
  5
7B2
  8
0
 10
2121.8662394173671
 20
1480.84795834137
 30
0.0
  0
VERTEX
  5
7B3
  8
0
 10
2122.5587076227739
 20
1480.9063704501989
 30
0.0
  0
VERTEX
  5
7B4
  8
0
 10
2123.251900258475
 20
1480.9587699634881
 30
0.0
  0
VERTEX
  5
7B5
  8
0
 10
2123.9458244089942
 20
1481.005068090469
 30
0.0
  0
VERTEX
  5
7B6
  8
0
 10
2124.6404871588579
 20
1481.0451760403739
 30
0.0
  0
VERTEX
  5
7B7
  8
0
 10
2125.3358955925919
 20
1481.0790050224341
 30
0.0
  0
VERTEX
  5
7B8
  8
0
 10
2126.0320567947201
 20
1481.10646624588
 30
0.0
  0
VERTEX
  5
7B9
  8
0
 10
2126.728977849767
 20
1481.127470919944
 30
0.0
  0
VERTEX
  5
7BA
  8
0
 10
2127.4266658422589
 20
1481.141930253857
 30
0.0
  0
VERTEX
  5
7BB
  8
0
 10
2128.1251278567211
 20
1481.1497554568509
 30
0.0
  0
VERTEX
  5
7BC
  8
0
 10
2128.8243709776789
 20
1481.1508577381569
 30
0.0
  0
VERTEX
  5
7BD
  8
0
 10
2129.524402289655
 20
1481.1451483070059
 30
0.0
  0
VERTEX
  5
7BE
  8
0
 10
2130.225228877177
 20
1481.1325383726301
 30
0.0
  0
VERTEX
  5
7BF
  8
0
 10
2130.9268578247688
 20
1481.1129391442601
 30
0.0
  0
VERTEX
  5
7C0
  8
0
 10
2131.6292962169568
 20
1481.0862618311271
 30
0.0
  0
VERTEX
  5
7C1
  8
0
 10
2132.332551138265
 20
1481.0524176424631
 30
0.0
  0
VERTEX
  5
7C2
  8
0
 10
2133.0366296732191
 20
1481.0113177874989
 30
0.0
  0
VERTEX
  5
7C3
  8
0
 10
2133.7415389063431
 20
1480.9628734754669
 30
0.0
  0
VERTEX
  5
7C4
  8
0
 10
2134.4472859221628
 20
1480.9069959155979
 30
0.0
  0
VERTEX
  5
7C5
  8
0
 10
2135.153877805204
 20
1480.843596317123
 30
0.0
  0
VERTEX
  5
7C6
  8
0
 10
2135.8613216399908
 20
1480.7725858892729
 30
0.0
  0
VERTEX
  5
7C7
  8
0
 10
2136.5696245110489
 20
1480.6938758412809
 30
0.0
  0
VERTEX
  5
7C8
  8
0
 10
2137.2787935029032
 20
1480.6073773823771
 30
0.0
  0
VERTEX
  5
7C9
  8
0
 10
2137.9888357000791
 20
1480.5130017217939
 30
0.0
  0
VERTEX
  5
7CA
  8
0
 10
2138.699758187101
 20
1480.4106600687601
 30
0.0
  0
VERTEX
  5
7CB
  8
0
 10
2139.4115680484938
 20
1480.3002636325109
 30
0.0
  0
VERTEX
  5
7CC
  8
0
 10
2140.1242723687842
 20
1480.1817236222739
 30
0.0
  0
VERTEX
  5
7CD
  8
0
 10
2140.8378782324962
 20
1480.054951247283
 30
0.0
  0
VERTEX
  5
7CE
  8
0
 10
2141.5523927241538
 20
1479.919857716769
 30
0.0
  0
VERTEX
  5
7CF
  8
0
 10
2142.270796369025
 20
1479.7874512718761
 30
0.0
  0
SEQEND
  5
7D0
  8
0
  0
POLYLINE
  5
222
  8
0
 66
     1
 10
0.0
 20
0.0
 30
0.0
  0
VERTEX
  5
7D1
  8
0
 10
2142.270796369025
 20
1479.7874512718761
 30
0.0
  0
VERTEX
  5
7D2
  8
0
 10
2142.9703894345248
 20
1479.666964003462
 30
0.0
  0
VERTEX
  5
7D3
  8
0
 10
2143.6702257665302
 20
1479.5499315479119
 30
0.0
  0
VERTEX
  5
7D4
  8
0
 10
2144.3673029801721
 20
1479.4253076214229
 30
0.0
  0
VERTEX
  5
7D5
  8
0
 10
2145.0615921313188
 20
1479.29314297211
 30
0.0
  0
VERTEX
  5
7D6
  8
0
 10
2145.7530642758388
 20
1479.153488348084
 30
0.0
  0
VERTEX
  5
7D7
  8
0
 10
2146.4416904696018
 20
1479.006394497459
 30
0.0
  0
VERTEX
  5
7D8
  8
0
 10
2147.1274417684781
 20
1478.851912168346
 30
0.0
  0
VERTEX
  5
7D9
  8
0
 10
2147.8102892283341
 20
1478.6900921088591
 30
0.0
  0
VERTEX
  5
7DA
  8
0
 10
2148.4902039050412
 20
1478.520985067111
 30
0.0
  0
VERTEX
  5
7DB
  8
0
 10
2149.1671568544671
 20
1478.344641791213
 30
0.0
  0
VERTEX
  5
7DC
  8
0
 10
2149.8411191324808
 20
1478.1611130292799
 30
0.0
  0
VERTEX
  5
7DD
  8
0
 10
2150.5120617949542
 20
1477.970449529422
 30
0.0
  0
VERTEX
  5
7DE
  8
0
 10
2151.1799558977532
 20
1477.772702039754
 30
0.0
  0
VERTEX
  5
7DF
  8
0
 10
2151.8447724967468
 20
1477.567921308387
 30
0.0
  0
VERTEX
  5
7E0
  8
0
 10
2152.5064826478078
 20
1477.356158083435
 30
0.0
  0
VERTEX
  5
7E1
  8
0
 10
2153.1650574068012
 20
1477.13746311301
 30
0.0
  0
VERTEX
  5
7E2
  8
0
 10
2153.8204678295979
 20
1476.911887145224
 30
0.0
  0
VERTEX
  5
7E3
  8
0
 10
2154.472684972066
 20
1476.6794809281921
 30
0.0
  0
VERTEX
  5
7E4
  8
0
 10
2155.1216798900768
 20
1476.440295210024
 30
0.0
  0
VERTEX
  5
7E5
  8
0
 10
2155.7674236394969
 20
1476.1943807388329
 30
0.0
  0
VERTEX
  5
7E6
  8
0
 10
2156.409887276197
 20
1475.941788262734
 30
0.0
  0
VERTEX
  5
7E7
  8
0
 10
2157.0490418560462
 20
1475.6825685298379
 30
0.0
  0
VERTEX
  5
7E8
  8
0
 10
2157.6848584349132
 20
1475.4167722882571
 30
0.0
  0
VERTEX
  5
7E9
  8
0
 10
2158.3173080686661
 20
1475.144450286105
 30
0.0
  0
VERTEX
  5
7EA
  8
0
 10
2158.9463618131758
 20
1474.865653271494
 30
0.0
  0
VERTEX
  5
7EB
  8
0
 10
2159.5719907243101
 20
1474.580431992538
 30
0.0
  0
VERTEX
  5
7EC
  8
0
 10
2160.1941658579381
 20
1474.288837197347
 30
0.0
  0
VERTEX
  5
7ED
  8
0
 10
2160.8128582699301
 20
1473.9909196340359
 30
0.0
  0
VERTEX
  5
7EE
  8
0
 10
2161.4280390161539
 20
1473.686730050717
 30
0.0
  0
VERTEX
  5
7EF
  8
0
 10
2162.039679152479
 20
1473.3763191955029
 30
0.0
  0
VERTEX
  5
7F0
  8
0
 10
2162.6477497347751
 20
1473.059737816505
 30
0.0
  0
VERTEX
  5
7F1
  8
0
 10
2163.2522218189101
 20
1472.7370366618379
 30
0.0
  0
VERTEX
  5
7F2
  8
0
 10
2163.8530664607551
 20
1472.4082664796131
 30
0.0
  0
VERTEX
  5
7F3
  8
0
 10
2164.4502547161769
 20
1472.0734780179439
 30
0.0
  0
VERTEX
  5
7F4
  8
0
 10
2165.0437576410459
 20
1471.7327220249419
 30
0.0
  0
VERTEX
  5
7F5
  8
0
 10
2165.6335462912311
 20
1471.3860492487211
 30
0.0
  0
VERTEX
  5
7F6
  8
0
 10
2166.2195917226009
 20
1471.0335104373939
 30
0.0
  0
VERTEX
  5
7F7
  8
0
 10
2166.801864991025
 20
1470.6751563390731
 30
0.0
  0
VERTEX
  5
7F8
  8
0
 10
2167.3803371523741
 20
1470.31103770187
 30
0.0
  0
VERTEX
  5
7F9
  8
0
 10
2167.9549792625139
 20
1469.941205273898
 30
0.0
  0
VERTEX
  5
7FA
  8
0
 10
2168.525762377315
 20
1469.5657098032709
 30
0.0
  0
VERTEX
  5
7FB
  8
0
 10
2169.0926575526478
 20
1469.1846020380999
 30
0.0
  0
VERTEX
  5
7FC
  8
0
 10
2169.65563584438
 20
1468.7979327264991
 30
0.0
  0
VERTEX
  5
7FD
  8
0
 10
2170.214668308382
 20
1468.40575261658
 30
0.0
  0
VERTEX
  5
7FE
  8
0
 10
2170.7697260005211
 20
1468.008112456456
 30
0.0
  0
VERTEX
  5
7FF
  8
0
 10
2171.3207799766669
 20
1467.605062994239
 30
0.0
  0
VERTEX
  5
800
  8
0
 10
2171.8678012926889
 20
1467.196654978042
 30
0.0
  0
VERTEX
  5
801
  8
0
 10
2172.4107610044571
 20
1466.7829391559781
 30
0.0
  0
VERTEX
  5
802
  8
0
 10
2172.9496301678391
 20
1466.36396627616
 30
0.0
  0
VERTEX
  5
803
  8
0
 10
2173.4843798387051
 20
1465.9397870867001
 30
0.0
  0
VERTEX
  5
804
  8
0
 10
2174.0149810729231
 20
1465.5104523357099
 30
0.0
  0
VERTEX
  5
805
  8
0
 10
2174.5414049263632
 20
1465.076012771304
 30
0.0
  0
VERTEX
  5
806
  8
0
 10
2175.0636224548939
 20
1464.636519141595
 30
0.0
  0
VERTEX
  5
807
  8
0
 10
2175.581604714384
 20
1464.1920221946939
 30
0.0
  0
VERTEX
  5
808
  8
0
 10
2176.0953227607029
 20
1463.7425726787139
 30
0.0
  0
VERTEX
  5
809
  8
0
 10
2176.604747649721
 20
1463.288221341769
 30
0.0
  0
VERTEX
  5
80A
  8
0
 10
2177.1098504373058
 20
1462.8290189319709
 30
0.0
  0
VERTEX
  5
80B
  8
0
 10
2177.6106021793271
 20
1462.3650161974331
 30
0.0
  0
VERTEX
  5
80C
  8
0
 10
2178.1069739316531
 20
1461.8962638862661
 30
0.0
  0
VERTEX
  5
80D
  8
0
 10
2178.5989367501538
 20
1461.4228127465849
 30
0.0
  0
VERTEX
  5
80E
  8
0
 10
2179.0864616906988
 20
1460.9447135265009
 30
0.0
  0
VERTEX
  5
80F
  8
0
 10
2179.5695198091562
 20
1460.4620169741279
 30
0.0
  0
VERTEX
  5
810
  8
0
 10
2180.0480821613951
 20
1459.9747738375779
 30
0.0
  0
VERTEX
  5
811
  8
0
 10
2180.522119803285
 20
1459.483034864963
 30
0.0
  0
VERTEX
  5
812
  8
0
 10
2180.991603790696
 20
1458.986850804396
 30
0.0
  0
VERTEX
  5
813
  8
0
 10
2181.4565051794939
 20
1458.4862724039911
 30
0.0
  0
VERTEX
  5
814
  8
0
 10
2181.9167950255519
 20
1457.981350411859
 30
0.0
  0
VERTEX
  5
815
  8
0
 10
2182.3724443847368
 20
1457.4721355761139
 30
0.0
  0
VERTEX
  5
816
  8
0
 10
2182.8234243129182
 20
1456.9586786448681
 30
0.0
  0
VERTEX
  5
817
  8
0
 10
2183.2697058659651
 20
1456.441030366233
 30
0.0
  0
VERTEX
  5
818
  8
0
 10
2183.7112600997461
 20
1455.919241488323
 30
0.0
  0
VERTEX
  5
819
  8
0
 10
2184.1480580701309
 20
1455.3933627592501
 30
0.0
  0
VERTEX
  5
81A
  8
0
 10
2184.5800708329889
 20
1454.863444927126
 30
0.0
  0
VERTEX
  5
81B
  8
0
 10
2185.0072694441892
 20
1454.329538740066
 30
0.0
  0
VERTEX
  5
81C
  8
0
 10
2185.4296249596
 20
1453.7916949461801
 30
0.0
  0
VERTEX
  5
81D
  8
0
 10
2185.8471084350908
 20
1453.249964293582
 30
0.0
  0
VERTEX
  5
81E
  8
0
 10
2186.2596909265312
 20
1452.704397530385
 30
0.0
  0
VERTEX
  5
81F
  8
0
 10
2186.6673434897898
 20
1452.1550454047001
 30
0.0
  0
VERTEX
  5
820
  8
0
 10
2187.0700371807361
 20
1451.6019586646421
 30
0.0
  0
VERTEX
  5
821
  8
0
 10
2187.4677430552379
 20
1451.0451880583221
 30
0.0
  0
VERTEX
  5
822
  8
0
 10
2187.8604321691669
 20
1450.4847843338539
 30
0.0
  0
VERTEX
  5
823
  8
0
 10
2188.2480755783899
 20
1449.9207982393491
 30
0.0
  0
VERTEX
  5
824
  8
0
 10
2188.6306443387771
 20
1449.3532805229199
 30
0.0
  0
VERTEX
  5
825
  8
0
 10
2189.0081095061969
 20
1448.7822819326809
 30
0.0
  0
VERTEX
  5
826
  8
0
 10
2189.3804421365189
 20
1448.2078532167441
 30
0.0
  0
VERTEX
  5
827
  8
0
 10
2189.7476132856118
 20
1447.6300451232221
 30
0.0
  0
VERTEX
  5
828
  8
0
 10
2190.1095940093451
 20
1447.0489084002261
 30
0.0
  0
VERTEX
  5
829
  8
0
 10
2190.4663553635878
 20
1446.464493795871
 30
0.0
  0
VERTEX
  5
82A
  8
0
 10
2190.8178684042091
 20
1445.876852058268
 30
0.0
  0
VERTEX
  5
82B
  8
0
 10
2191.164104187078
 20
1445.2860339355309
 30
0.0
  0
VERTEX
  5
82C
  8
0
 10
2191.5050337680641
 20
1444.6920901757719
 30
0.0
  0
VERTEX
  5
82D
  8
0
 10
2191.8406282030351
 20
1444.0950715271031
 30
0.0
  0
VERTEX
  5
82E
  8
0
 10
2192.1708585478618
 20
1443.4950287376371
 30
0.0
  0
VERTEX
  5
82F
  8
0
 10
2192.4956958584112
 20
1442.892012555488
 30
0.0
  0
VERTEX
  5
830
  8
0
 10
2192.8151111905549
 20
1442.286073728767
 30
0.0
  0
VERTEX
  5
831
  8
0
 10
2193.1290756001608
 20
1441.677263005588
 30
0.0
  0
VERTEX
  5
832
  8
0
 10
2193.437560143097
 20
1441.0656311340631
 30
0.0
  0
VERTEX
  5
833
  8
0
 10
2193.7405358752339
 20
1440.4512288623041
 30
0.0
  0
VERTEX
  5
834
  8
0
 10
2194.0379738524421
 20
1439.8341069384251
 30
0.0
  0
VERTEX
  5
835
  8
0
 10
2194.3298451305868
 20
1439.214316110538
 30
0.0
  0
VERTEX
  5
836
  8
0
 10
2194.61612076554
 20
1438.5919071267549
 30
0.0
  0
VERTEX
  5
837
  8
0
 10
2194.8967718131689
 20
1437.9669307351901
 30
0.0
  0
VERTEX
  5
838
  8
0
 10
2195.1717693293449
 20
1437.339437683956
 30
0.0
  0
VERTEX
  5
839
  8
0
 10
2195.4410843699361
 20
1436.709478721164
 30
0.0
  0
VERTEX
  5
83A
  8
0
 10
2195.7046879908112
 20
1436.077104594928
 30
0.0
  0
VERTEX
  5
83B
  8
0
 10
2195.9625512478392
 20
1435.4423660533589
 30
0.0
  0
VERTEX
  5
83C
  8
0
 10
2196.2146451968888
 20
1434.8053138445721
 30
0.0
  0
VERTEX
  5
83D
  8
0
 10
2196.4609408938309
 20
1434.1659987166779
 30
0.0
  0
VERTEX
  5
83E
  8
0
 10
2196.701409394534
 20
1433.52447141779
 30
0.0
  0
VERTEX
  5
83F
  8
0
 10
2196.9360217548651
 20
1432.880782696021
 30
0.0
  0
VERTEX
  5
840
  8
0
 10
2197.1647490306959
 20
1432.2349832994839
 30
0.0
  0
VERTEX
  5
841
  8
0
 10
2197.3875622778951
 20
1431.587123976291
 30
0.0
  0
VERTEX
  5
842
  8
0
 10
2197.6044325523299
 20
1430.9372554745551
 30
0.0
  0
VERTEX
  5
843
  8
0
 10
2197.815330909872
 20
1430.285428542388
 30
0.0
  0
VERTEX
  5
844
  8
0
 10
2198.020228406388
 20
1429.6316939279041
 30
0.0
  0
VERTEX
  5
845
  8
0
 10
2198.21909609775
 20
1428.9761023792139
 30
0.0
  0
VERTEX
  5
846
  8
0
 10
2198.411905039824
 20
1428.318704644433
 30
0.0
  0
VERTEX
  5
847
  8
0
 10
2198.5986262884808
 20
1427.659551471671
 30
0.0
  0
VERTEX
  5
848
  8
0
 10
2198.779230899589
 20
1426.9986936090429
 30
0.0
  0
VERTEX
  5
849
  8
0
 10
2198.9536899290179
 20
1426.3361818046601
 30
0.0
  0
VERTEX
  5
84A
  8
0
 10
2199.1219744326372
 20
1425.6720668066359
 30
0.0
  0
VERTEX
  5
84B
  8
0
 10
2199.2840554663139
 20
1425.006399363082
 30
0.0
  0
VERTEX
  5
84C
  8
0
 10
2199.4399040859198
 20
1424.3392302221121
 30
0.0
  0
VERTEX
  5
84D
  8
0
 10
2199.5894913473221
 20
1423.6706101318391
 30
0.0
  0
VERTEX
  5
84E
  8
0
 10
2199.7327883063908
 20
1423.0005898403749
 30
0.0
  0
VERTEX
  5
84F
  8
0
 10
2199.8697660189951
 20
1422.3292200958319
 30
0.0
  0
VERTEX
  5
850
  8
0
 10
2200.018168113947
 20
1421.662068565324
 30
0.0
  0
VERTEX
  5
851
  8
0
 10
2200.1960179426042
 20
1420.982635239963
 30
0.0
  0
SEQEND
  5
852
  8
0
  0
POLYLINE
  5
223
  8
0
 66
     1
 10
0.0
 20
0.0
 30
0.0
  0
VERTEX
  5
853
  8
0
 10
2200.1960179426042
 20
1420.982635239963
 30
0.0
  0
VERTEX
  5
854
  8
0
 10
2200.6932199996049
 20
1418.4082277236671
 30
0.0
  0
VERTEX
  5
855
  8
0
 10
2201.2234524871228
 20
1415.8292244963111
 30
0.0
  0
VERTEX
  5
856
  8
0
 10
2201.7167531761788
 20
1413.245831540195
 30
0.0
  0
VERTEX
  5
857
  8
0
 10
2202.1745298521132
 20
1410.6582548376191
 30
0.0
  0
VERTEX
  5
858
  8
0
 10
2202.5981903002639
 20
1408.0667003708829
 30
0.0
  0
VERTEX
  5
859
  8
0
 10
2202.9891423059698
 20
1405.471374122287
 30
0.0
  0
VERTEX
  5
85A
  8
0
 10
2203.348793654573
 20
1402.8724820741299
 30
0.0
  0
VERTEX
  5
85B
  8
0
 10
2203.67855213141
 20
1400.270230208713
 30
0.0
  0
VERTEX
  5
85C
  8
0
 10
2203.9798255218211
 20
1397.664824508334
 30
0.0
  0
VERTEX
  5
85D
  8
0
 10
2204.2540216111461
 20
1395.056470955295
 30
0.0
  0
VERTEX
  5
85E
  8
0
 10
2204.5025481847242
 20
1392.4453755318939
 30
0.0
  0
VERTEX
  5
85F
  8
0
 10
2204.726813027894
 20
1389.831744220432
 30
0.0
  0
VERTEX
  5
860
  8
0
 10
2204.928223925996
 20
1387.215783003207
 30
0.0
  0
VERTEX
  5
861
  8
0
 10
2205.1081886643678
 20
1384.597697862521
 30
0.0
  0
VERTEX
  5
862
  8
0
 10
2205.2681150283511
 20
1381.9776947806729
 30
0.0
  0
VERTEX
  5
863
  8
0
 10
2205.409410803285
 20
1379.355979739963
 30
0.0
  0
VERTEX
  5
864
  8
0
 10
2205.5334837745072
 20
1376.7327587226901
 30
0.0
  0
VERTEX
  5
865
  8
0
 10
2205.6417417273569
 20
1374.1082377111541
 30
0.0
  0
VERTEX
  5
866
  8
0
 10
2205.7355924471749
 20
1371.482622687656
 30
0.0
  0
VERTEX
  5
867
  8
0
 10
2205.8164437193
 20
1368.856119634494
 30
0.0
  0
VERTEX
  5
868
  8
0
 10
2205.9447790618301
 20
1363.601273368381
 30
0.0
  0
VERTEX
  5
869
  8
0
 10
2206.0380100376601
 20
1358.3453467712129
 30
0.0
  0
VERTEX
  5
86A
  8
0
 10
2206.107398929506
 20
1353.089987701389
 30
0.0
  0
VERTEX
  5
86B
  8
0
 10
2206.1642080200818
 20
1347.836844017306
 30
0.0
  0
VERTEX
  5
86C
  8
0
 10
2206.2851359282849
 20
1337.343794239963
 30
0.0
  0
SEQEND
  5
86D
  8
0
  0
ENDSEC
  0
EOF
